ISO-10303-21;
HEADER;
/* Generated by software containing ST-Developer
 * from STEP Tools, Inc. (www.steptools.com) 
 */

FILE_DESCRIPTION(
/* description */ (''),
/* implementation_level */ '2;1');

FILE_NAME(
/* name */ 
'C:\\Users\\matthiask.LAMELLONET\\Desktop\\Vereinfachung\\Invis_Mx2_Ve
rbinder_35mm_mit_Eindrehmutter_14mm.stp',
/* time_stamp */ '2021-08-19T10:29:13+02:00',
/* author */ ('matthiask'),
/* organization */ (''),
/* preprocessor_version */ 'ST-DEVELOPER v18',
/* originating_system */ 'Autodesk Inventor 2020',
/* authorisation */ '');

FILE_SCHEMA (('AUTOMOTIVE_DESIGN { 1 0 10303 214 3 1 1 }'));
ENDSEC;

DATA;
#10=MECHANICAL_DESIGN_GEOMETRIC_PRESENTATION_REPRESENTATION('',(#23,#24),
#372);
#11=ITEM_DEFINED_TRANSFORMATION($,$,#222,#249);
#12=ITEM_DEFINED_TRANSFORMATION($,$,#236,#250);
#13=(
REPRESENTATION_RELATIONSHIP($,$,#386,#385)
REPRESENTATION_RELATIONSHIP_WITH_TRANSFORMATION(#11)
SHAPE_REPRESENTATION_RELATIONSHIP()
);
#14=(
REPRESENTATION_RELATIONSHIP($,$,#387,#385)
REPRESENTATION_RELATIONSHIP_WITH_TRANSFORMATION(#12)
SHAPE_REPRESENTATION_RELATIONSHIP()
);
#15=CONTEXT_DEPENDENT_SHAPE_REPRESENTATION(#13,#383);
#16=CONTEXT_DEPENDENT_SHAPE_REPRESENTATION(#14,#384);
#17=NEXT_ASSEMBLY_USAGE_OCCURRENCE('Invis_Mx2_Verbinder_35mm:1',
'Invis_Mx2_Verbinder_35mm:1','Invis_Mx2_Verbinder_35mm:1',#389,#390,
'Invis_Mx2_Verbinder_35mm:1');
#18=NEXT_ASSEMBLY_USAGE_OCCURRENCE('Invis_Mx2_Eindrehmutter_14mm:1',
'Invis_Mx2_Eindrehmutter_14mm:1','Invis_Mx2_Eindrehmutter_14mm:1',#389,
#391,'Invis_Mx2_Eindrehmutter_14mm:1');
#19=SHAPE_REPRESENTATION_RELATIONSHIP('SRR','None',#386,#21);
#20=SHAPE_REPRESENTATION_RELATIONSHIP('SRR','None',#387,#22);
#21=ADVANCED_BREP_SHAPE_REPRESENTATION('',(#25),#370);
#22=ADVANCED_BREP_SHAPE_REPRESENTATION('',(#26),#371);
#23=STYLED_ITEM('',(#194),#25);
#24=STYLED_ITEM('',(#194),#26);
#25=MANIFOLD_SOLID_BREP('Volumenk\X\F6rper1',#169);
#26=MANIFOLD_SOLID_BREP('Volumenk\X\F6rper1',#170);
#27=FACE_BOUND('',#49,.T.);
#28=FACE_BOUND('',#51,.T.);
#29=FACE_BOUND('',#54,.T.);
#30=PLANE('',#228);
#31=PLANE('',#229);
#32=PLANE('',#235);
#33=PLANE('',#237);
#34=PLANE('',#245);
#35=FACE_OUTER_BOUND('',#44,.T.);
#36=FACE_OUTER_BOUND('',#45,.T.);
#37=FACE_OUTER_BOUND('',#46,.T.);
#38=FACE_OUTER_BOUND('',#47,.T.);
#39=FACE_OUTER_BOUND('',#48,.T.);
#40=FACE_OUTER_BOUND('',#50,.T.);
#41=FACE_OUTER_BOUND('',#52,.T.);
#42=FACE_OUTER_BOUND('',#53,.T.);
#43=FACE_OUTER_BOUND('',#55,.T.);
#44=EDGE_LOOP('',(#116,#117,#118,#119,#120,#121));
#45=EDGE_LOOP('',(#122,#123));
#46=EDGE_LOOP('',(#124,#125));
#47=EDGE_LOOP('',(#126,#127,#128,#129,#130,#131));
#48=EDGE_LOOP('',(#132,#133));
#49=EDGE_LOOP('',(#134,#135));
#50=EDGE_LOOP('',(#136,#137));
#51=EDGE_LOOP('',(#138,#139));
#52=EDGE_LOOP('',(#140,#141,#142,#143,#144,#145));
#53=EDGE_LOOP('',(#146,#147));
#54=EDGE_LOOP('',(#148,#149));
#55=EDGE_LOOP('',(#150,#151,#152,#153,#154,#155));
#56=LINE('',#323,#60);
#57=LINE('',#338,#61);
#58=LINE('',#355,#62);
#59=LINE('',#362,#63);
#60=VECTOR('',#261,2.5);
#61=VECTOR('',#280,5.89999999999999);
#62=VECTOR('',#301,5.9);
#63=VECTOR('',#310,2.5);
#64=CIRCLE('',#224,2.5);
#65=CIRCLE('',#225,2.5);
#66=CIRCLE('',#226,2.5);
#67=CIRCLE('',#227,2.5);
#68=CIRCLE('',#230,5.9);
#69=CIRCLE('',#231,5.9);
#70=CIRCLE('',#233,5.89999999999999);
#71=CIRCLE('',#234,5.89999999999999);
#72=CIRCLE('',#238,5.9);
#73=CIRCLE('',#239,5.9);
#74=CIRCLE('',#240,2.5);
#75=CIRCLE('',#241,2.5);
#76=CIRCLE('',#243,5.9);
#77=CIRCLE('',#244,5.9);
#78=CIRCLE('',#246,2.5);
#79=CIRCLE('',#247,2.5);
#80=VERTEX_POINT('',#318);
#81=VERTEX_POINT('',#319);
#82=VERTEX_POINT('',#322);
#83=VERTEX_POINT('',#324);
#84=VERTEX_POINT('',#329);
#85=VERTEX_POINT('',#330);
#86=VERTEX_POINT('',#334);
#87=VERTEX_POINT('',#335);
#88=VERTEX_POINT('',#342);
#89=VERTEX_POINT('',#343);
#90=VERTEX_POINT('',#346);
#91=VERTEX_POINT('',#347);
#92=VERTEX_POINT('',#351);
#93=VERTEX_POINT('',#352);
#94=VERTEX_POINT('',#357);
#95=VERTEX_POINT('',#358);
#96=EDGE_CURVE('',#80,#81,#64,.T.);
#97=EDGE_CURVE('',#81,#80,#65,.T.);
#98=EDGE_CURVE('',#81,#82,#56,.T.);
#99=EDGE_CURVE('',#82,#83,#66,.T.);
#100=EDGE_CURVE('',#83,#82,#67,.T.);
#101=EDGE_CURVE('',#84,#85,#68,.T.);
#102=EDGE_CURVE('',#85,#84,#69,.T.);
#103=EDGE_CURVE('',#86,#87,#70,.T.);
#104=EDGE_CURVE('',#87,#86,#71,.T.);
#105=EDGE_CURVE('',#87,#85,#57,.T.);
#106=EDGE_CURVE('',#88,#89,#72,.T.);
#107=EDGE_CURVE('',#89,#88,#73,.T.);
#108=EDGE_CURVE('',#90,#91,#74,.T.);
#109=EDGE_CURVE('',#91,#90,#75,.T.);
#110=EDGE_CURVE('',#92,#93,#76,.T.);
#111=EDGE_CURVE('',#93,#92,#77,.T.);
#112=EDGE_CURVE('',#93,#89,#58,.T.);
#113=EDGE_CURVE('',#94,#95,#78,.T.);
#114=EDGE_CURVE('',#95,#94,#79,.T.);
#115=EDGE_CURVE('',#95,#91,#59,.T.);
#116=ORIENTED_EDGE('',*,*,#96,.F.);
#117=ORIENTED_EDGE('',*,*,#97,.F.);
#118=ORIENTED_EDGE('',*,*,#98,.T.);
#119=ORIENTED_EDGE('',*,*,#99,.T.);
#120=ORIENTED_EDGE('',*,*,#100,.T.);
#121=ORIENTED_EDGE('',*,*,#98,.F.);
#122=ORIENTED_EDGE('',*,*,#96,.T.);
#123=ORIENTED_EDGE('',*,*,#97,.T.);
#124=ORIENTED_EDGE('',*,*,#101,.F.);
#125=ORIENTED_EDGE('',*,*,#102,.F.);
#126=ORIENTED_EDGE('',*,*,#103,.F.);
#127=ORIENTED_EDGE('',*,*,#104,.F.);
#128=ORIENTED_EDGE('',*,*,#105,.T.);
#129=ORIENTED_EDGE('',*,*,#102,.T.);
#130=ORIENTED_EDGE('',*,*,#101,.T.);
#131=ORIENTED_EDGE('',*,*,#105,.F.);
#132=ORIENTED_EDGE('',*,*,#103,.T.);
#133=ORIENTED_EDGE('',*,*,#104,.T.);
#134=ORIENTED_EDGE('',*,*,#100,.F.);
#135=ORIENTED_EDGE('',*,*,#99,.F.);
#136=ORIENTED_EDGE('',*,*,#106,.F.);
#137=ORIENTED_EDGE('',*,*,#107,.F.);
#138=ORIENTED_EDGE('',*,*,#108,.T.);
#139=ORIENTED_EDGE('',*,*,#109,.T.);
#140=ORIENTED_EDGE('',*,*,#110,.F.);
#141=ORIENTED_EDGE('',*,*,#111,.F.);
#142=ORIENTED_EDGE('',*,*,#112,.T.);
#143=ORIENTED_EDGE('',*,*,#107,.T.);
#144=ORIENTED_EDGE('',*,*,#106,.T.);
#145=ORIENTED_EDGE('',*,*,#112,.F.);
#146=ORIENTED_EDGE('',*,*,#110,.T.);
#147=ORIENTED_EDGE('',*,*,#111,.T.);
#148=ORIENTED_EDGE('',*,*,#113,.F.);
#149=ORIENTED_EDGE('',*,*,#114,.F.);
#150=ORIENTED_EDGE('',*,*,#113,.T.);
#151=ORIENTED_EDGE('',*,*,#115,.T.);
#152=ORIENTED_EDGE('',*,*,#108,.F.);
#153=ORIENTED_EDGE('',*,*,#109,.F.);
#154=ORIENTED_EDGE('',*,*,#115,.F.);
#155=ORIENTED_EDGE('',*,*,#114,.T.);
#156=CYLINDRICAL_SURFACE('',#223,2.5);
#157=CYLINDRICAL_SURFACE('',#232,5.9);
#158=CYLINDRICAL_SURFACE('',#242,5.9);
#159=CYLINDRICAL_SURFACE('',#248,2.5);
#160=ADVANCED_FACE('',(#35),#156,.T.);
#161=ADVANCED_FACE('',(#36),#30,.T.);
#162=ADVANCED_FACE('',(#37),#31,.T.);
#163=ADVANCED_FACE('',(#38),#157,.T.);
#164=ADVANCED_FACE('',(#39,#27),#32,.T.);
#165=ADVANCED_FACE('',(#40,#28),#33,.T.);
#166=ADVANCED_FACE('',(#41),#158,.T.);
#167=ADVANCED_FACE('',(#42,#29),#34,.T.);
#168=ADVANCED_FACE('',(#43),#159,.F.);
#169=CLOSED_SHELL('',(#160,#161,#162,#163,#164));
#170=CLOSED_SHELL('',(#165,#166,#167,#168));
#171=DERIVED_UNIT_ELEMENT(#175,1.);
#172=DERIVED_UNIT_ELEMENT(#374,3.);
#173=DERIVED_UNIT_ELEMENT(#175,1.);
#174=DERIVED_UNIT_ELEMENT(#374,3.);
#175=(
MASS_UNIT()
NAMED_UNIT(*)
SI_UNIT($,.GRAM.)
);
#176=DERIVED_UNIT((#171,#172));
#177=DERIVED_UNIT((#173,#174));
#178=MEASURE_REPRESENTATION_ITEM('density measure',
POSITIVE_RATIO_MEASURE(1.),#176);
#179=MEASURE_REPRESENTATION_ITEM('density measure',
POSITIVE_RATIO_MEASURE(1.),#177);
#180=PROPERTY_DEFINITION_REPRESENTATION(#190,#184);
#181=PROPERTY_DEFINITION_REPRESENTATION(#191,#185);
#182=PROPERTY_DEFINITION_REPRESENTATION(#192,#186);
#183=PROPERTY_DEFINITION_REPRESENTATION(#193,#187);
#184=REPRESENTATION('material name',(#188),#370);
#185=REPRESENTATION('density',(#178),#370);
#186=REPRESENTATION('material name',(#189),#371);
#187=REPRESENTATION('density',(#179),#371);
#188=DESCRIPTIVE_REPRESENTATION_ITEM('Allgemein','Allgemein');
#189=DESCRIPTIVE_REPRESENTATION_ITEM('Allgemein','Allgemein');
#190=PROPERTY_DEFINITION('material property','material name',#390);
#191=PROPERTY_DEFINITION('material property','density of part',#390);
#192=PROPERTY_DEFINITION('material property','material name',#391);
#193=PROPERTY_DEFINITION('material property','density of part',#391);
#194=PRESENTATION_STYLE_ASSIGNMENT((#195));
#195=SURFACE_STYLE_USAGE(.BOTH.,#198);
#196=SURFACE_STYLE_RENDERING_WITH_PROPERTIES($,#202,(#197));
#197=SURFACE_STYLE_TRANSPARENT(0.);
#198=SURFACE_SIDE_STYLE('',(#199,#196));
#199=SURFACE_STYLE_FILL_AREA(#200);
#200=FILL_AREA_STYLE('',(#201));
#201=FILL_AREA_STYLE_COLOUR('',#202);
#202=COLOUR_RGB('',0.749019607843137,0.749019607843137,0.749019607843137);
#203=DATE_TIME_ROLE('creation_date');
#204=DATE_TIME_ROLE('creation_date');
#205=DATE_TIME_ROLE('creation_date');
#206=APPLIED_DATE_AND_TIME_ASSIGNMENT(#209,#203,(#389));
#207=APPLIED_DATE_AND_TIME_ASSIGNMENT(#210,#204,(#390));
#208=APPLIED_DATE_AND_TIME_ASSIGNMENT(#211,#205,(#391));
#209=DATE_AND_TIME(#212,#215);
#210=DATE_AND_TIME(#213,#216);
#211=DATE_AND_TIME(#214,#217);
#212=CALENDAR_DATE(2021,18,8);
#213=CALENDAR_DATE(2021,18,8);
#214=CALENDAR_DATE(2021,18,8);
#215=LOCAL_TIME(8,25,56.,#218);
#216=LOCAL_TIME(8,8,35.,#219);
#217=LOCAL_TIME(8,12,26.,#220);
#218=COORDINATED_UNIVERSAL_TIME_OFFSET(0,0,.BEHIND.);
#219=COORDINATED_UNIVERSAL_TIME_OFFSET(0,0,.BEHIND.);
#220=COORDINATED_UNIVERSAL_TIME_OFFSET(0,0,.BEHIND.);
#221=AXIS2_PLACEMENT_3D('placement',#315,#251,#252);
#222=AXIS2_PLACEMENT_3D('placement',#316,#253,#254);
#223=AXIS2_PLACEMENT_3D('',#317,#255,#256);
#224=AXIS2_PLACEMENT_3D('',#320,#257,#258);
#225=AXIS2_PLACEMENT_3D('',#321,#259,#260);
#226=AXIS2_PLACEMENT_3D('',#325,#262,#263);
#227=AXIS2_PLACEMENT_3D('',#326,#264,#265);
#228=AXIS2_PLACEMENT_3D('',#327,#266,#267);
#229=AXIS2_PLACEMENT_3D('',#328,#268,#269);
#230=AXIS2_PLACEMENT_3D('',#331,#270,#271);
#231=AXIS2_PLACEMENT_3D('',#332,#272,#273);
#232=AXIS2_PLACEMENT_3D('',#333,#274,#275);
#233=AXIS2_PLACEMENT_3D('',#336,#276,#277);
#234=AXIS2_PLACEMENT_3D('',#337,#278,#279);
#235=AXIS2_PLACEMENT_3D('',#339,#281,#282);
#236=AXIS2_PLACEMENT_3D('placement',#340,#283,#284);
#237=AXIS2_PLACEMENT_3D('',#341,#285,#286);
#238=AXIS2_PLACEMENT_3D('',#344,#287,#288);
#239=AXIS2_PLACEMENT_3D('',#345,#289,#290);
#240=AXIS2_PLACEMENT_3D('',#348,#291,#292);
#241=AXIS2_PLACEMENT_3D('',#349,#293,#294);
#242=AXIS2_PLACEMENT_3D('',#350,#295,#296);
#243=AXIS2_PLACEMENT_3D('',#353,#297,#298);
#244=AXIS2_PLACEMENT_3D('',#354,#299,#300);
#245=AXIS2_PLACEMENT_3D('',#356,#302,#303);
#246=AXIS2_PLACEMENT_3D('',#359,#304,#305);
#247=AXIS2_PLACEMENT_3D('',#360,#306,#307);
#248=AXIS2_PLACEMENT_3D('',#361,#308,#309);
#249=AXIS2_PLACEMENT_3D('',#363,#311,#312);
#250=AXIS2_PLACEMENT_3D('',#364,#313,#314);
#251=DIRECTION('axis',(0.,0.,1.));
#252=DIRECTION('refdir',(1.,0.,0.));
#253=DIRECTION('axis',(0.,0.,1.));
#254=DIRECTION('refdir',(1.,0.,0.));
#255=DIRECTION('center_axis',(1.,4.28626379701574E-16,0.));
#256=DIRECTION('ref_axis',(-5.58354687597756E-16,1.,0.));
#257=DIRECTION('center_axis',(1.,4.28626379701574E-16,0.));
#258=DIRECTION('ref_axis',(0.,0.,-1.));
#259=DIRECTION('center_axis',(1.,4.28626379701574E-16,0.));
#260=DIRECTION('ref_axis',(0.,0.,-1.));
#261=DIRECTION('',(-1.,-4.28626379701574E-16,0.));
#262=DIRECTION('center_axis',(1.,4.28626379701574E-16,0.));
#263=DIRECTION('ref_axis',(0.,0.,-1.));
#264=DIRECTION('center_axis',(1.,4.28626379701574E-16,0.));
#265=DIRECTION('ref_axis',(0.,0.,-1.));
#266=DIRECTION('center_axis',(1.,4.28626379701574E-16,0.));
#267=DIRECTION('ref_axis',(0.,0.,-1.));
#268=DIRECTION('center_axis',(-1.,-4.28626379701574E-16,0.));
#269=DIRECTION('ref_axis',(0.,0.,1.));
#270=DIRECTION('center_axis',(1.,4.28626379701574E-16,0.));
#271=DIRECTION('ref_axis',(0.,0.,-1.));
#272=DIRECTION('center_axis',(1.,4.28626379701574E-16,0.));
#273=DIRECTION('ref_axis',(0.,0.,-1.));
#274=DIRECTION('center_axis',(1.,4.28626379701574E-16,0.));
#275=DIRECTION('ref_axis',(-5.58354687597756E-16,1.,0.));
#276=DIRECTION('center_axis',(1.,4.28626379701574E-16,0.));
#277=DIRECTION('ref_axis',(0.,0.,-1.));
#278=DIRECTION('center_axis',(1.,4.28626379701574E-16,0.));
#279=DIRECTION('ref_axis',(0.,0.,-1.));
#280=DIRECTION('',(-1.,-4.28626379701574E-16,0.));
#281=DIRECTION('center_axis',(1.,4.28626379701574E-16,0.));
#282=DIRECTION('ref_axis',(0.,0.,-1.));
#283=DIRECTION('axis',(0.,0.,1.));
#284=DIRECTION('refdir',(1.,0.,0.));
#285=DIRECTION('center_axis',(-1.,0.,0.));
#286=DIRECTION('ref_axis',(0.,0.,1.));
#287=DIRECTION('center_axis',(1.,0.,0.));
#288=DIRECTION('ref_axis',(0.,0.,-1.));
#289=DIRECTION('center_axis',(1.,0.,0.));
#290=DIRECTION('ref_axis',(0.,0.,-1.));
#291=DIRECTION('center_axis',(1.,0.,0.));
#292=DIRECTION('ref_axis',(0.,0.,-1.));
#293=DIRECTION('center_axis',(1.,0.,0.));
#294=DIRECTION('ref_axis',(0.,0.,-1.));
#295=DIRECTION('center_axis',(1.,0.,0.));
#296=DIRECTION('ref_axis',(0.,1.,0.));
#297=DIRECTION('center_axis',(1.,0.,0.));
#298=DIRECTION('ref_axis',(0.,0.,-1.));
#299=DIRECTION('center_axis',(1.,0.,0.));
#300=DIRECTION('ref_axis',(0.,0.,-1.));
#301=DIRECTION('',(-1.,0.,0.));
#302=DIRECTION('center_axis',(1.,0.,0.));
#303=DIRECTION('ref_axis',(0.,0.,-1.));
#304=DIRECTION('center_axis',(1.,0.,0.));
#305=DIRECTION('ref_axis',(0.,0.,-1.));
#306=DIRECTION('center_axis',(1.,0.,0.));
#307=DIRECTION('ref_axis',(0.,0.,-1.));
#308=DIRECTION('center_axis',(1.,0.,0.));
#309=DIRECTION('ref_axis',(0.,1.,0.));
#310=DIRECTION('',(-1.,0.,0.));
#311=DIRECTION('',(0.,0.,1.));
#312=DIRECTION('',(1.,0.,0.));
#313=DIRECTION('',(0.,0.,1.));
#314=DIRECTION('',(1.,0.,0.));
#315=CARTESIAN_POINT('',(0.,0.,0.));
#316=CARTESIAN_POINT('',(0.,0.,0.));
#317=CARTESIAN_POINT('Origin',(38.5,1.65021156185106E-14,0.));
#318=CARTESIAN_POINT('',(42.5,2.50000000000002,0.));
#319=CARTESIAN_POINT('',(42.5,-2.49999999999998,-3.06161699786838E-16));
#320=CARTESIAN_POINT('Origin',(42.5,1.82166211373169E-14,0.));
#321=CARTESIAN_POINT('Origin',(42.5,1.82166211373169E-14,0.));
#322=CARTESIAN_POINT('',(34.5,-2.49999999999998,-3.06161699786838E-16));
#323=CARTESIAN_POINT('',(38.5,-2.49999999999998,-3.06161699786838E-16));
#324=CARTESIAN_POINT('',(34.5,2.50000000000001,0.));
#325=CARTESIAN_POINT('Origin',(34.5,1.47876100997043E-14,0.));
#326=CARTESIAN_POINT('Origin',(34.5,1.47876100997043E-14,0.));
#327=CARTESIAN_POINT('Origin',(42.5,1.82166211373169E-14,0.));
#328=CARTESIAN_POINT('Origin',(0.,5.9,0.));
#329=CARTESIAN_POINT('',(0.,5.9,0.));
#330=CARTESIAN_POINT('',(6.66133814775094E-15,-5.9,-7.22541611496938E-16));
#331=CARTESIAN_POINT('Origin',(4.44089209850063E-15,3.94430452610506E-30,
0.));
#332=CARTESIAN_POINT('Origin',(4.44089209850063E-15,3.94430452610506E-30,
0.));
#333=CARTESIAN_POINT('Origin',(17.25,7.39380504985215E-15,0.));
#334=CARTESIAN_POINT('',(34.5,5.90000000000001,0.));
#335=CARTESIAN_POINT('',(34.5,-5.89999999999998,-7.22541611496938E-16));
#336=CARTESIAN_POINT('Origin',(34.5,1.47876100997043E-14,0.));
#337=CARTESIAN_POINT('Origin',(34.5,1.47876100997043E-14,0.));
#338=CARTESIAN_POINT('',(17.25,-5.89999999999999,-7.22541611496938E-16));
#339=CARTESIAN_POINT('Origin',(34.5,2.50000000000001,0.));
#340=CARTESIAN_POINT('',(0.,0.,0.));
#341=CARTESIAN_POINT('Origin',(0.,5.9,0.));
#342=CARTESIAN_POINT('',(0.,5.9,0.));
#343=CARTESIAN_POINT('',(-1.11022302462516E-15,-5.9,-7.22541611496939E-16));
#344=CARTESIAN_POINT('Origin',(0.,0.,0.));
#345=CARTESIAN_POINT('Origin',(0.,0.,0.));
#346=CARTESIAN_POINT('',(-1.11022302462516E-15,2.5,0.));
#347=CARTESIAN_POINT('',(-1.11022302462516E-15,-2.5,-3.06161699786838E-16));
#348=CARTESIAN_POINT('Origin',(-1.11022302462516E-15,0.,0.));
#349=CARTESIAN_POINT('Origin',(-1.11022302462516E-15,0.,0.));
#350=CARTESIAN_POINT('Origin',(6.,0.,0.));
#351=CARTESIAN_POINT('',(12.,5.9,0.));
#352=CARTESIAN_POINT('',(12.,-5.9,-7.22541611496939E-16));
#353=CARTESIAN_POINT('Origin',(12.,0.,0.));
#354=CARTESIAN_POINT('Origin',(12.,0.,0.));
#355=CARTESIAN_POINT('',(6.,-5.9,-7.22541611496939E-16));
#356=CARTESIAN_POINT('Origin',(12.,2.5,0.));
#357=CARTESIAN_POINT('',(12.,2.5,0.));
#358=CARTESIAN_POINT('',(12.,-2.5,-3.06161699786838E-16));
#359=CARTESIAN_POINT('Origin',(12.,0.,0.));
#360=CARTESIAN_POINT('Origin',(12.,0.,0.));
#361=CARTESIAN_POINT('Origin',(6.,0.,0.));
#362=CARTESIAN_POINT('',(6.,-2.5,-3.06161699786838E-16));
#363=CARTESIAN_POINT('',(0.,0.,0.));
#364=CARTESIAN_POINT('',(35.,1.50019232895551E-14,0.));
#365=UNCERTAINTY_MEASURE_WITH_UNIT(LENGTH_MEASURE(0.01),#373,
'DISTANCE_ACCURACY_VALUE',
'Maximum model space distance between geometric entities at asserted c
onnectivities');
#366=UNCERTAINTY_MEASURE_WITH_UNIT(LENGTH_MEASURE(0.01),#373,
'DISTANCE_ACCURACY_VALUE',
'Maximum model space distance between geometric entities at asserted c
onnectivities');
#367=UNCERTAINTY_MEASURE_WITH_UNIT(LENGTH_MEASURE(0.01),#373,
'DISTANCE_ACCURACY_VALUE',
'Maximum model space distance between geometric entities at asserted c
onnectivities');
#368=UNCERTAINTY_MEASURE_WITH_UNIT(LENGTH_MEASURE(0.01),#373,
'DISTANCE_ACCURACY_VALUE',
'Maximum model space distance between geometric entities at asserted c
onnectivities');
#369=(
GEOMETRIC_REPRESENTATION_CONTEXT(3)
GLOBAL_UNCERTAINTY_ASSIGNED_CONTEXT((#365))
GLOBAL_UNIT_ASSIGNED_CONTEXT((#373,#375,#376))
REPRESENTATION_CONTEXT('','3D')
);
#370=(
GEOMETRIC_REPRESENTATION_CONTEXT(3)
GLOBAL_UNCERTAINTY_ASSIGNED_CONTEXT((#366))
GLOBAL_UNIT_ASSIGNED_CONTEXT((#373,#375,#376))
REPRESENTATION_CONTEXT('','3D')
);
#371=(
GEOMETRIC_REPRESENTATION_CONTEXT(3)
GLOBAL_UNCERTAINTY_ASSIGNED_CONTEXT((#367))
GLOBAL_UNIT_ASSIGNED_CONTEXT((#373,#375,#376))
REPRESENTATION_CONTEXT('','3D')
);
#372=(
GEOMETRIC_REPRESENTATION_CONTEXT(3)
GLOBAL_UNCERTAINTY_ASSIGNED_CONTEXT((#368))
GLOBAL_UNIT_ASSIGNED_CONTEXT((#373,#375,#376))
REPRESENTATION_CONTEXT('','3D')
);
#373=(
LENGTH_UNIT()
NAMED_UNIT(*)
SI_UNIT(.MILLI.,.METRE.)
);
#374=(
LENGTH_UNIT()
NAMED_UNIT(*)
SI_UNIT(.CENTI.,.METRE.)
);
#375=(
NAMED_UNIT(*)
PLANE_ANGLE_UNIT()
SI_UNIT($,.RADIAN.)
);
#376=(
NAMED_UNIT(*)
SI_UNIT($,.STERADIAN.)
SOLID_ANGLE_UNIT()
);
#377=SHAPE_DEFINITION_REPRESENTATION(#380,#385);
#378=SHAPE_DEFINITION_REPRESENTATION(#381,#386);
#379=SHAPE_DEFINITION_REPRESENTATION(#382,#387);
#380=PRODUCT_DEFINITION_SHAPE('',$,#389);
#381=PRODUCT_DEFINITION_SHAPE('',$,#390);
#382=PRODUCT_DEFINITION_SHAPE('',$,#391);
#383=PRODUCT_DEFINITION_SHAPE($,$,#17);
#384=PRODUCT_DEFINITION_SHAPE($,$,#18);
#385=SHAPE_REPRESENTATION('',(#221,#249,#250),#369);
#386=SHAPE_REPRESENTATION('',(#222),#370);
#387=SHAPE_REPRESENTATION('',(#236),#371);
#388=PRODUCT_DEFINITION_CONTEXT('part definition',#399,'design');
#389=PRODUCT_DEFINITION(
'Invis_Mx2_Verbinder_35mm_mit_Eindrehmutter_14mm',
'Invis_Mx2_Verbinder_35mm_mit_Eindrehmutter_14mm',#392,#388);
#390=PRODUCT_DEFINITION('Invis_Mx2_Verbinder_35mmm',
'Invis_Mx2_Verbinder_35mm',#393,#388);
#391=PRODUCT_DEFINITION('Invis_Mx2_Eindrehmutter_14mm',
'Invis_Mx2_Eindrehmutter_14mm',#394,#388);
#392=PRODUCT_DEFINITION_FORMATION('',$,#401);
#393=PRODUCT_DEFINITION_FORMATION('',$,#402);
#394=PRODUCT_DEFINITION_FORMATION('',$,#403);
#395=PRODUCT_RELATED_PRODUCT_CATEGORY(
'Invis_Mx2_Verbinder_35mm_mit_Eindrehmutter_14mm',
'Invis_Mx2_Verbinder_35mm_mit_Eindrehmutter_14mm',(#401));
#396=PRODUCT_RELATED_PRODUCT_CATEGORY('Invis_Mx2_Verbinder_35mm',
'Invis_Mx2_Verbinder_35mm',(#402));
#397=PRODUCT_RELATED_PRODUCT_CATEGORY('Invis_Mx2_Eindrehmutter_14mm',
'Invis_Mx2_Eindrehmutter_14mm',(#403));
#398=APPLICATION_PROTOCOL_DEFINITION('international standard',
'automotive_design',2009,#399);
#399=APPLICATION_CONTEXT(
'Core Data for Automotive Mechanical Design Process');
#400=PRODUCT_CONTEXT('part definition',#399,'mechanical');
#401=PRODUCT('Invis_Mx2_Verbinder_35mm_mit_Eindrehmutter_14mm',
'Invis_Mx2_Verbinder_35mm_mit_Eindrehmutter_14mm',$,(#400));
#402=PRODUCT('Invis_Mx2_Verbinder_35mmm','Invis_Mx2_Verbinder_35mm',$,(#400));
#403=PRODUCT('Invis_Mx2_Eindrehmutter_14mm',
'Invis_Mx2_Eindrehmutter_14mm',$,(#400));
ENDSEC;
END-ISO-10303-21;
