ISO-10303-21;
HEADER;
/* Generated by software containing ST-Developer
 * from STEP Tools, Inc. (www.steptools.com) 
 */

FILE_DESCRIPTION(
/* description */ (''),
/* implementation_level */ '2;1');

FILE_NAME(
/* name */ 
'C:\\Users\\matthiask.LAMELLONET\\Desktop\\Vereinfachung\\Original_Hol
zlamelle_Groesse_H9.stp',
/* time_stamp */ '2021-08-19T10:52:36+02:00',
/* author */ ('matthiask'),
/* organization */ (''),
/* preprocessor_version */ 'ST-DEVELOPER v18',
/* originating_system */ 'Autodesk Inventor 2020',
/* authorisation */ '');

FILE_SCHEMA (('AUTOMOTIVE_DESIGN { 1 0 10303 214 3 1 1 }'));
ENDSEC;

DATA;
#10=MECHANICAL_DESIGN_GEOMETRIC_PRESENTATION_REPRESENTATION('',(#13),#333);
#11=SHAPE_REPRESENTATION_RELATIONSHIP('SRR','None',#340,#12);
#12=ADVANCED_BREP_SHAPE_REPRESENTATION('',(#14),#332);
#13=STYLED_ITEM('',(#349),#14);
#14=MANIFOLD_SOLID_BREP('Volumenk\X\F6rper1',#179);
#15=CYLINDRICAL_SURFACE('',#206,39.);
#16=CYLINDRICAL_SURFACE('',#208,0.400000000000018);
#17=CYLINDRICAL_SURFACE('',#211,0.400000000000009);
#18=CYLINDRICAL_SURFACE('',#213,39.);
#19=CYLINDRICAL_SURFACE('',#215,0.400000000000018);
#20=CYLINDRICAL_SURFACE('',#218,0.4);
#21=FACE_OUTER_BOUND('',#31,.T.);
#22=FACE_OUTER_BOUND('',#32,.T.);
#23=FACE_OUTER_BOUND('',#33,.T.);
#24=FACE_OUTER_BOUND('',#34,.T.);
#25=FACE_OUTER_BOUND('',#35,.T.);
#26=FACE_OUTER_BOUND('',#36,.T.);
#27=FACE_OUTER_BOUND('',#37,.T.);
#28=FACE_OUTER_BOUND('',#38,.T.);
#29=FACE_OUTER_BOUND('',#39,.T.);
#30=FACE_OUTER_BOUND('',#40,.T.);
#31=EDGE_LOOP('',(#117,#118,#119,#120,#121,#122,#123,#124));
#32=EDGE_LOOP('',(#125,#126,#127,#128));
#33=EDGE_LOOP('',(#129,#130,#131,#132));
#34=EDGE_LOOP('',(#133,#134,#135,#136));
#35=EDGE_LOOP('',(#137,#138,#139,#140));
#36=EDGE_LOOP('',(#141,#142,#143,#144));
#37=EDGE_LOOP('',(#145,#146,#147,#148));
#38=EDGE_LOOP('',(#149,#150,#151,#152));
#39=EDGE_LOOP('',(#153,#154,#155,#156));
#40=EDGE_LOOP('',(#157,#158,#159,#160,#161,#162,#163,#164));
#41=CIRCLE('',#200,0.4);
#42=CIRCLE('',#201,39.);
#43=CIRCLE('',#202,0.400000000000018);
#44=CIRCLE('',#203,0.400000000000009);
#45=CIRCLE('',#204,39.);
#46=CIRCLE('',#205,0.400000000000018);
#47=CIRCLE('',#207,39.);
#48=CIRCLE('',#209,0.400000000000018);
#49=CIRCLE('',#212,0.400000000000009);
#50=CIRCLE('',#214,39.);
#51=CIRCLE('',#216,0.400000000000018);
#52=CIRCLE('',#219,0.4);
#53=LINE('',#283,#65);
#54=LINE('',#291,#66);
#55=LINE('',#301,#67);
#56=LINE('',#302,#68);
#57=LINE('',#306,#69);
#58=LINE('',#309,#70);
#59=LINE('',#310,#71);
#60=LINE('',#314,#72);
#61=LINE('',#318,#73);
#62=LINE('',#322,#74);
#63=LINE('',#325,#75);
#64=LINE('',#326,#76);
#65=VECTOR('',#225,10.);
#66=VECTOR('',#232,10.);
#67=VECTOR('',#243,10.);
#68=VECTOR('',#244,10.);
#69=VECTOR('',#249,10.);
#70=VECTOR('',#252,10.);
#71=VECTOR('',#253,10.);
#72=VECTOR('',#258,10.);
#73=VECTOR('',#263,10.);
#74=VECTOR('',#268,10.);
#75=VECTOR('',#271,10.);
#76=VECTOR('',#272,10.);
#77=VERTEX_POINT('',#281);
#78=VERTEX_POINT('',#282);
#79=VERTEX_POINT('',#284);
#80=VERTEX_POINT('',#286);
#81=VERTEX_POINT('',#288);
#82=VERTEX_POINT('',#290);
#83=VERTEX_POINT('',#292);
#84=VERTEX_POINT('',#294);
#85=VERTEX_POINT('',#298);
#86=VERTEX_POINT('',#299);
#87=VERTEX_POINT('',#304);
#88=VERTEX_POINT('',#308);
#89=VERTEX_POINT('',#312);
#90=VERTEX_POINT('',#316);
#91=VERTEX_POINT('',#320);
#92=VERTEX_POINT('',#324);
#93=EDGE_CURVE('',#77,#78,#53,.T.);
#94=EDGE_CURVE('',#79,#77,#41,.T.);
#95=EDGE_CURVE('',#80,#79,#42,.T.);
#96=EDGE_CURVE('',#81,#80,#43,.T.);
#97=EDGE_CURVE('',#82,#81,#54,.T.);
#98=EDGE_CURVE('',#83,#82,#44,.T.);
#99=EDGE_CURVE('',#84,#83,#45,.T.);
#100=EDGE_CURVE('',#78,#84,#46,.T.);
#101=EDGE_CURVE('',#85,#86,#47,.T.);
#102=EDGE_CURVE('',#86,#80,#55,.T.);
#103=EDGE_CURVE('',#85,#79,#56,.T.);
#104=EDGE_CURVE('',#86,#87,#48,.T.);
#105=EDGE_CURVE('',#87,#81,#57,.T.);
#106=EDGE_CURVE('',#87,#88,#58,.T.);
#107=EDGE_CURVE('',#88,#82,#59,.T.);
#108=EDGE_CURVE('',#88,#89,#49,.T.);
#109=EDGE_CURVE('',#89,#83,#60,.T.);
#110=EDGE_CURVE('',#89,#90,#50,.T.);
#111=EDGE_CURVE('',#90,#84,#61,.T.);
#112=EDGE_CURVE('',#90,#91,#51,.T.);
#113=EDGE_CURVE('',#91,#78,#62,.T.);
#114=EDGE_CURVE('',#91,#92,#63,.T.);
#115=EDGE_CURVE('',#77,#92,#64,.T.);
#116=EDGE_CURVE('',#92,#85,#52,.T.);
#117=ORIENTED_EDGE('',*,*,#93,.F.);
#118=ORIENTED_EDGE('',*,*,#94,.F.);
#119=ORIENTED_EDGE('',*,*,#95,.F.);
#120=ORIENTED_EDGE('',*,*,#96,.F.);
#121=ORIENTED_EDGE('',*,*,#97,.F.);
#122=ORIENTED_EDGE('',*,*,#98,.F.);
#123=ORIENTED_EDGE('',*,*,#99,.F.);
#124=ORIENTED_EDGE('',*,*,#100,.F.);
#125=ORIENTED_EDGE('',*,*,#101,.T.);
#126=ORIENTED_EDGE('',*,*,#102,.T.);
#127=ORIENTED_EDGE('',*,*,#95,.T.);
#128=ORIENTED_EDGE('',*,*,#103,.F.);
#129=ORIENTED_EDGE('',*,*,#104,.T.);
#130=ORIENTED_EDGE('',*,*,#105,.T.);
#131=ORIENTED_EDGE('',*,*,#96,.T.);
#132=ORIENTED_EDGE('',*,*,#102,.F.);
#133=ORIENTED_EDGE('',*,*,#106,.T.);
#134=ORIENTED_EDGE('',*,*,#107,.T.);
#135=ORIENTED_EDGE('',*,*,#97,.T.);
#136=ORIENTED_EDGE('',*,*,#105,.F.);
#137=ORIENTED_EDGE('',*,*,#108,.T.);
#138=ORIENTED_EDGE('',*,*,#109,.T.);
#139=ORIENTED_EDGE('',*,*,#98,.T.);
#140=ORIENTED_EDGE('',*,*,#107,.F.);
#141=ORIENTED_EDGE('',*,*,#110,.T.);
#142=ORIENTED_EDGE('',*,*,#111,.T.);
#143=ORIENTED_EDGE('',*,*,#99,.T.);
#144=ORIENTED_EDGE('',*,*,#109,.F.);
#145=ORIENTED_EDGE('',*,*,#112,.T.);
#146=ORIENTED_EDGE('',*,*,#113,.T.);
#147=ORIENTED_EDGE('',*,*,#100,.T.);
#148=ORIENTED_EDGE('',*,*,#111,.F.);
#149=ORIENTED_EDGE('',*,*,#114,.T.);
#150=ORIENTED_EDGE('',*,*,#115,.F.);
#151=ORIENTED_EDGE('',*,*,#93,.T.);
#152=ORIENTED_EDGE('',*,*,#113,.F.);
#153=ORIENTED_EDGE('',*,*,#116,.T.);
#154=ORIENTED_EDGE('',*,*,#103,.T.);
#155=ORIENTED_EDGE('',*,*,#94,.T.);
#156=ORIENTED_EDGE('',*,*,#115,.T.);
#157=ORIENTED_EDGE('',*,*,#101,.F.);
#158=ORIENTED_EDGE('',*,*,#116,.F.);
#159=ORIENTED_EDGE('',*,*,#114,.F.);
#160=ORIENTED_EDGE('',*,*,#112,.F.);
#161=ORIENTED_EDGE('',*,*,#110,.F.);
#162=ORIENTED_EDGE('',*,*,#108,.F.);
#163=ORIENTED_EDGE('',*,*,#106,.F.);
#164=ORIENTED_EDGE('',*,*,#104,.F.);
#165=PLANE('',#199);
#166=PLANE('',#210);
#167=PLANE('',#217);
#168=PLANE('',#220);
#169=ADVANCED_FACE('',(#21),#165,.F.);
#170=ADVANCED_FACE('',(#22),#15,.T.);
#171=ADVANCED_FACE('',(#23),#16,.T.);
#172=ADVANCED_FACE('',(#24),#166,.T.);
#173=ADVANCED_FACE('',(#25),#17,.T.);
#174=ADVANCED_FACE('',(#26),#18,.T.);
#175=ADVANCED_FACE('',(#27),#19,.T.);
#176=ADVANCED_FACE('',(#28),#167,.T.);
#177=ADVANCED_FACE('',(#29),#20,.T.);
#178=ADVANCED_FACE('',(#30),#168,.T.);
#179=CLOSED_SHELL('',(#169,#170,#171,#172,#173,#174,#175,#176,#177,#178));
#180=DERIVED_UNIT_ELEMENT(#182,1.);
#181=DERIVED_UNIT_ELEMENT(#335,3.);
#182=(
MASS_UNIT()
NAMED_UNIT(*)
SI_UNIT($,.GRAM.)
);
#183=DERIVED_UNIT((#180,#181));
#184=MEASURE_REPRESENTATION_ITEM('density measure',
POSITIVE_RATIO_MEASURE(1.),#183);
#185=PROPERTY_DEFINITION_REPRESENTATION(#190,#187);
#186=PROPERTY_DEFINITION_REPRESENTATION(#191,#188);
#187=REPRESENTATION('material name',(#189),#332);
#188=REPRESENTATION('density',(#184),#332);
#189=DESCRIPTIVE_REPRESENTATION_ITEM('Allgemein','Allgemein');
#190=PROPERTY_DEFINITION('material property','material name',#342);
#191=PROPERTY_DEFINITION('material property','density of part',#342);
#192=DATE_TIME_ROLE('creation_date');
#193=APPLIED_DATE_AND_TIME_ASSIGNMENT(#194,#192,(#342));
#194=DATE_AND_TIME(#195,#196);
#195=CALENDAR_DATE(2017,14,3);
#196=LOCAL_TIME(5,42,43.,#197);
#197=COORDINATED_UNIVERSAL_TIME_OFFSET(0,0,.BEHIND.);
#198=AXIS2_PLACEMENT_3D('placement',#279,#221,#222);
#199=AXIS2_PLACEMENT_3D('',#280,#223,#224);
#200=AXIS2_PLACEMENT_3D('',#285,#226,#227);
#201=AXIS2_PLACEMENT_3D('',#287,#228,#229);
#202=AXIS2_PLACEMENT_3D('',#289,#230,#231);
#203=AXIS2_PLACEMENT_3D('',#293,#233,#234);
#204=AXIS2_PLACEMENT_3D('',#295,#235,#236);
#205=AXIS2_PLACEMENT_3D('',#296,#237,#238);
#206=AXIS2_PLACEMENT_3D('',#297,#239,#240);
#207=AXIS2_PLACEMENT_3D('',#300,#241,#242);
#208=AXIS2_PLACEMENT_3D('',#303,#245,#246);
#209=AXIS2_PLACEMENT_3D('',#305,#247,#248);
#210=AXIS2_PLACEMENT_3D('',#307,#250,#251);
#211=AXIS2_PLACEMENT_3D('',#311,#254,#255);
#212=AXIS2_PLACEMENT_3D('',#313,#256,#257);
#213=AXIS2_PLACEMENT_3D('',#315,#259,#260);
#214=AXIS2_PLACEMENT_3D('',#317,#261,#262);
#215=AXIS2_PLACEMENT_3D('',#319,#264,#265);
#216=AXIS2_PLACEMENT_3D('',#321,#266,#267);
#217=AXIS2_PLACEMENT_3D('',#323,#269,#270);
#218=AXIS2_PLACEMENT_3D('',#327,#273,#274);
#219=AXIS2_PLACEMENT_3D('',#328,#275,#276);
#220=AXIS2_PLACEMENT_3D('',#329,#277,#278);
#221=DIRECTION('axis',(0.,0.,1.));
#222=DIRECTION('refdir',(1.,0.,0.));
#223=DIRECTION('center_axis',(0.,0.,1.));
#224=DIRECTION('ref_axis',(1.,0.,0.));
#225=DIRECTION('',(0.,-1.,0.));
#226=DIRECTION('center_axis',(0.,0.,1.));
#227=DIRECTION('ref_axis',(0.481865284974095,-0.876245312191075,0.));
#228=DIRECTION('center_axis',(0.,0.,1.));
#229=DIRECTION('ref_axis',(-0.481865284974093,-0.876245312191076,0.));
#230=DIRECTION('center_axis',(0.,0.,1.));
#231=DIRECTION('ref_axis',(-1.,0.,0.));
#232=DIRECTION('',(0.,1.,0.));
#233=DIRECTION('center_axis',(0.,0.,1.));
#234=DIRECTION('ref_axis',(-0.481865284974095,0.876245312191075,0.));
#235=DIRECTION('center_axis',(0.,0.,1.));
#236=DIRECTION('ref_axis',(0.481865284974093,0.876245312191076,0.));
#237=DIRECTION('center_axis',(0.,0.,1.));
#238=DIRECTION('ref_axis',(1.,0.,0.));
#239=DIRECTION('center_axis',(0.,0.,1.));
#240=DIRECTION('ref_axis',(-0.481865284974093,-0.876245312191076,0.));
#241=DIRECTION('center_axis',(0.,0.,-1.));
#242=DIRECTION('ref_axis',(-0.481865284974093,-0.876245312191076,0.));
#243=DIRECTION('',(0.,0.,-1.));
#244=DIRECTION('',(0.,0.,-1.));
#245=DIRECTION('center_axis',(0.,0.,1.));
#246=DIRECTION('ref_axis',(-1.,0.,0.));
#247=DIRECTION('center_axis',(0.,0.,-1.));
#248=DIRECTION('ref_axis',(-1.,0.,0.));
#249=DIRECTION('',(0.,0.,-1.));
#250=DIRECTION('center_axis',(1.,0.,0.));
#251=DIRECTION('ref_axis',(0.,0.,-1.));
#252=DIRECTION('',(0.,-1.,0.));
#253=DIRECTION('',(0.,0.,-1.));
#254=DIRECTION('center_axis',(0.,0.,1.));
#255=DIRECTION('ref_axis',(-0.481865284974095,0.876245312191075,0.));
#256=DIRECTION('center_axis',(0.,0.,-1.));
#257=DIRECTION('ref_axis',(-0.481865284974095,0.876245312191075,0.));
#258=DIRECTION('',(0.,0.,-1.));
#259=DIRECTION('center_axis',(0.,0.,1.));
#260=DIRECTION('ref_axis',(0.481865284974093,0.876245312191076,0.));
#261=DIRECTION('center_axis',(0.,0.,-1.));
#262=DIRECTION('ref_axis',(0.481865284974093,0.876245312191076,0.));
#263=DIRECTION('',(0.,0.,-1.));
#264=DIRECTION('center_axis',(0.,0.,1.));
#265=DIRECTION('ref_axis',(1.,0.,0.));
#266=DIRECTION('center_axis',(0.,0.,-1.));
#267=DIRECTION('ref_axis',(1.,0.,0.));
#268=DIRECTION('',(0.,0.,-1.));
#269=DIRECTION('center_axis',(-1.,0.,0.));
#270=DIRECTION('ref_axis',(0.,0.,1.));
#271=DIRECTION('',(0.,1.,0.));
#272=DIRECTION('',(0.,0.,1.));
#273=DIRECTION('center_axis',(0.,0.,1.));
#274=DIRECTION('ref_axis',(0.481865284974095,-0.876245312191075,0.));
#275=DIRECTION('center_axis',(0.,0.,-1.));
#276=DIRECTION('ref_axis',(0.481865284974095,-0.876245312191075,0.));
#277=DIRECTION('center_axis',(0.,0.,1.));
#278=DIRECTION('ref_axis',(1.,0.,0.));
#279=CARTESIAN_POINT('',(0.,0.,0.));
#280=CARTESIAN_POINT('Origin',(3.88578058618805E-15,7.93284213232639E-16,
-1.5));
#281=CARTESIAN_POINT('',(-19.,0.823069050575524,-1.5));
#282=CARTESIAN_POINT('',(-19.,-0.823069050575529,-1.5));
#283=CARTESIAN_POINT('',(-19.,-0.823069050575529,-1.5));
#284=CARTESIAN_POINT('',(-18.7927461139896,1.17356717545195,-1.5));
#285=CARTESIAN_POINT('Origin',(-18.6,0.823069050575524,-1.5));
#286=CARTESIAN_POINT('',(18.7927461139896,1.17356717545196,-1.5));
#287=CARTESIAN_POINT('Origin',(4.04133443718626E-15,-33.,-1.5));
#288=CARTESIAN_POINT('',(19.,0.823069050575529,-1.5));
#289=CARTESIAN_POINT('Origin',(18.6,0.823069050575529,-1.5));
#290=CARTESIAN_POINT('',(19.,-0.823069050575524,-1.5));
#291=CARTESIAN_POINT('',(19.,0.823069050575529,-1.5));
#292=CARTESIAN_POINT('',(18.7927461139896,-1.17356717545195,-1.5));
#293=CARTESIAN_POINT('Origin',(18.6,-0.823069050575524,-1.5));
#294=CARTESIAN_POINT('',(-18.7927461139896,-1.17356717545196,-1.5));
#295=CARTESIAN_POINT('Origin',(-4.04133443718627E-15,33.,-1.5));
#296=CARTESIAN_POINT('Origin',(-18.6,-0.823069050575529,-1.5));
#297=CARTESIAN_POINT('Origin',(4.04133443718626E-15,-33.,0.));
#298=CARTESIAN_POINT('',(-18.7927461139896,1.17356717545195,1.5));
#299=CARTESIAN_POINT('',(18.7927461139896,1.17356717545196,1.5));
#300=CARTESIAN_POINT('Origin',(4.04133443718626E-15,-33.,1.5));
#301=CARTESIAN_POINT('',(18.7927461139896,1.17356717545196,0.));
#302=CARTESIAN_POINT('',(-18.7927461139896,1.17356717545195,0.));
#303=CARTESIAN_POINT('Origin',(18.6,0.823069050575529,0.));
#304=CARTESIAN_POINT('',(19.,0.823069050575529,1.5));
#305=CARTESIAN_POINT('Origin',(18.6,0.823069050575529,1.5));
#306=CARTESIAN_POINT('',(19.,0.823069050575529,0.));
#307=CARTESIAN_POINT('Origin',(19.,0.823069050575529,0.));
#308=CARTESIAN_POINT('',(19.,-0.823069050575524,1.5));
#309=CARTESIAN_POINT('',(19.,0.823069050575529,1.5));
#310=CARTESIAN_POINT('',(19.,-0.823069050575524,0.));
#311=CARTESIAN_POINT('Origin',(18.6,-0.823069050575524,0.));
#312=CARTESIAN_POINT('',(18.7927461139896,-1.17356717545195,1.5));
#313=CARTESIAN_POINT('Origin',(18.6,-0.823069050575524,1.5));
#314=CARTESIAN_POINT('',(18.7927461139896,-1.17356717545195,0.));
#315=CARTESIAN_POINT('Origin',(-4.04133443718627E-15,33.,0.));
#316=CARTESIAN_POINT('',(-18.7927461139896,-1.17356717545196,1.5));
#317=CARTESIAN_POINT('Origin',(-4.04133443718627E-15,33.,1.5));
#318=CARTESIAN_POINT('',(-18.7927461139896,-1.17356717545196,0.));
#319=CARTESIAN_POINT('Origin',(-18.6,-0.823069050575529,0.));
#320=CARTESIAN_POINT('',(-19.,-0.823069050575529,1.5));
#321=CARTESIAN_POINT('Origin',(-18.6,-0.823069050575529,1.5));
#322=CARTESIAN_POINT('',(-19.,-0.823069050575529,0.));
#323=CARTESIAN_POINT('Origin',(-19.,-0.823069050575529,0.));
#324=CARTESIAN_POINT('',(-19.,0.823069050575524,1.5));
#325=CARTESIAN_POINT('',(-19.,-0.823069050575529,1.5));
#326=CARTESIAN_POINT('',(-19.,0.823069050575524,0.));
#327=CARTESIAN_POINT('Origin',(-18.6,0.823069050575524,0.));
#328=CARTESIAN_POINT('Origin',(-18.6,0.823069050575524,1.5));
#329=CARTESIAN_POINT('Origin',(3.99092425206434E-15,8.32667268468867E-16,
1.5));
#330=UNCERTAINTY_MEASURE_WITH_UNIT(LENGTH_MEASURE(0.01),#334,
'DISTANCE_ACCURACY_VALUE',
'Maximum model space distance between geometric entities at asserted c
onnectivities');
#331=UNCERTAINTY_MEASURE_WITH_UNIT(LENGTH_MEASURE(0.01),#334,
'DISTANCE_ACCURACY_VALUE',
'Maximum model space distance between geometric entities at asserted c
onnectivities');
#332=(
GEOMETRIC_REPRESENTATION_CONTEXT(3)
GLOBAL_UNCERTAINTY_ASSIGNED_CONTEXT((#330))
GLOBAL_UNIT_ASSIGNED_CONTEXT((#334,#336,#337))
REPRESENTATION_CONTEXT('','3D')
);
#333=(
GEOMETRIC_REPRESENTATION_CONTEXT(3)
GLOBAL_UNCERTAINTY_ASSIGNED_CONTEXT((#331))
GLOBAL_UNIT_ASSIGNED_CONTEXT((#334,#336,#337))
REPRESENTATION_CONTEXT('','3D')
);
#334=(
LENGTH_UNIT()
NAMED_UNIT(*)
SI_UNIT(.MILLI.,.METRE.)
);
#335=(
LENGTH_UNIT()
NAMED_UNIT(*)
SI_UNIT(.CENTI.,.METRE.)
);
#336=(
NAMED_UNIT(*)
PLANE_ANGLE_UNIT()
SI_UNIT($,.RADIAN.)
);
#337=(
NAMED_UNIT(*)
SI_UNIT($,.STERADIAN.)
SOLID_ANGLE_UNIT()
);
#338=SHAPE_DEFINITION_REPRESENTATION(#339,#340);
#339=PRODUCT_DEFINITION_SHAPE('',$,#342);
#340=SHAPE_REPRESENTATION('',(#198),#332);
#341=PRODUCT_DEFINITION_CONTEXT('part definition',#346,'design');
#342=PRODUCT_DEFINITION('Lamello -H9-','Lamello -H9-',#343,#341);
#343=PRODUCT_DEFINITION_FORMATION('0',$,#348);
#344=PRODUCT_RELATED_PRODUCT_CATEGORY('Lamello -H9-','Lamello -H9-',(#348));
#345=APPLICATION_PROTOCOL_DEFINITION('international standard',
'automotive_design',2009,#346);
#346=APPLICATION_CONTEXT(
'Core Data for Automotive Mechanical Design Process');
#347=PRODUCT_CONTEXT('part definition',#346,'mechanical');
#348=PRODUCT('Lamello -H9-','Lamello -H9-',$,(#347));
#349=PRESENTATION_STYLE_ASSIGNMENT((#350));
#350=SURFACE_STYLE_USAGE(.BOTH.,#353);
#351=SURFACE_STYLE_RENDERING_WITH_PROPERTIES($,#357,(#352));
#352=SURFACE_STYLE_TRANSPARENT(0.);
#353=SURFACE_SIDE_STYLE('',(#354,#351));
#354=SURFACE_STYLE_FILL_AREA(#355);
#355=FILL_AREA_STYLE('',(#356));
#356=FILL_AREA_STYLE_COLOUR('',#357);
#357=COLOUR_RGB('',0.568627450980392,0.568627450980392,0.568627450980392);
ENDSEC;
END-ISO-10303-21;
