ISO-10303-21;
HEADER;
/* Generated by software containing ST-Developer
 * from STEP Tools, Inc. (www.steptools.com) 
 */

FILE_DESCRIPTION(
/* description */ (''),
/* implementation_level */ '2;1');

FILE_NAME(
/* name */ 
'C:\\Users\\matthiask.LAMELLONET\\Desktop\\\X\D6fftentliche Daten\\Cla
mex_P-14_Verbinderhaelfte_ohne_Hebel_s.stp',
/* time_stamp */ '2022-06-29T13:51:54+02:00',
/* author */ ('matthiask'),
/* organization */ (''),
/* preprocessor_version */ 'ST-DEVELOPER v18',
/* originating_system */ 'Autodesk Inventor 2020',
/* authorisation */ '');

FILE_SCHEMA (('AUTOMOTIVE_DESIGN { 1 0 10303 214 3 1 1 }'));
ENDSEC;

DATA;
#10=MECHANICAL_DESIGN_GEOMETRIC_PRESENTATION_REPRESENTATION('',(#13),#551);
#11=SHAPE_REPRESENTATION_RELATIONSHIP('SRR','None',#558,#12);
#12=ADVANCED_BREP_SHAPE_REPRESENTATION('',(#14),#550);
#13=STYLED_ITEM('',(#567),#14);
#14=MANIFOLD_SOLID_BREP('Volumenk\X\F6rper1',#333);
#15=FACE_BOUND('',#58,.T.);
#16=FACE_BOUND('',#59,.T.);
#17=FACE_BOUND('',#60,.T.);
#18=CYLINDRICAL_SURFACE('',#370,50.);
#19=CIRCLE('',#369,50.);
#20=CIRCLE('',#371,50.);
#21=FACE_OUTER_BOUND('',#40,.T.);
#22=FACE_OUTER_BOUND('',#41,.T.);
#23=FACE_OUTER_BOUND('',#42,.T.);
#24=FACE_OUTER_BOUND('',#43,.T.);
#25=FACE_OUTER_BOUND('',#44,.T.);
#26=FACE_OUTER_BOUND('',#45,.T.);
#27=FACE_OUTER_BOUND('',#46,.T.);
#28=FACE_OUTER_BOUND('',#47,.T.);
#29=FACE_OUTER_BOUND('',#48,.T.);
#30=FACE_OUTER_BOUND('',#49,.T.);
#31=FACE_OUTER_BOUND('',#50,.T.);
#32=FACE_OUTER_BOUND('',#51,.T.);
#33=FACE_OUTER_BOUND('',#52,.T.);
#34=FACE_OUTER_BOUND('',#53,.T.);
#35=FACE_OUTER_BOUND('',#54,.T.);
#36=FACE_OUTER_BOUND('',#55,.T.);
#37=FACE_OUTER_BOUND('',#56,.T.);
#38=FACE_OUTER_BOUND('',#57,.T.);
#39=FACE_OUTER_BOUND('',#61,.T.);
#40=EDGE_LOOP('',(#212,#213,#214,#215));
#41=EDGE_LOOP('',(#216,#217,#218,#219));
#42=EDGE_LOOP('',(#220,#221,#222,#223));
#43=EDGE_LOOP('',(#224,#225,#226,#227));
#44=EDGE_LOOP('',(#228,#229,#230,#231));
#45=EDGE_LOOP('',(#232,#233,#234,#235));
#46=EDGE_LOOP('',(#236,#237,#238,#239));
#47=EDGE_LOOP('',(#240,#241,#242,#243));
#48=EDGE_LOOP('',(#244,#245,#246,#247));
#49=EDGE_LOOP('',(#248,#249,#250,#251));
#50=EDGE_LOOP('',(#252,#253,#254,#255));
#51=EDGE_LOOP('',(#256,#257,#258,#259));
#52=EDGE_LOOP('',(#260,#261,#262,#263));
#53=EDGE_LOOP('',(#264,#265,#266,#267));
#54=EDGE_LOOP('',(#268,#269,#270,#271));
#55=EDGE_LOOP('',(#272,#273));
#56=EDGE_LOOP('',(#274,#275,#276,#277));
#57=EDGE_LOOP('',(#278,#279,#280,#281));
#58=EDGE_LOOP('',(#282,#283,#284,#285));
#59=EDGE_LOOP('',(#286,#287,#288,#289));
#60=EDGE_LOOP('',(#290,#291,#292,#293));
#61=EDGE_LOOP('',(#294,#295));
#62=LINE('',#462,#102);
#63=LINE('',#464,#103);
#64=LINE('',#466,#104);
#65=LINE('',#467,#105);
#66=LINE('',#470,#106);
#67=LINE('',#472,#107);
#68=LINE('',#473,#108);
#69=LINE('',#476,#109);
#70=LINE('',#478,#110);
#71=LINE('',#479,#111);
#72=LINE('',#481,#112);
#73=LINE('',#482,#113);
#74=LINE('',#487,#114);
#75=LINE('',#489,#115);
#76=LINE('',#491,#116);
#77=LINE('',#492,#117);
#78=LINE('',#495,#118);
#79=LINE('',#497,#119);
#80=LINE('',#498,#120);
#81=LINE('',#501,#121);
#82=LINE('',#503,#122);
#83=LINE('',#504,#123);
#84=LINE('',#506,#124);
#85=LINE('',#507,#125);
#86=LINE('',#512,#126);
#87=LINE('',#514,#127);
#88=LINE('',#516,#128);
#89=LINE('',#517,#129);
#90=LINE('',#520,#130);
#91=LINE('',#522,#131);
#92=LINE('',#523,#132);
#93=LINE('',#526,#133);
#94=LINE('',#528,#134);
#95=LINE('',#529,#135);
#96=LINE('',#531,#136);
#97=LINE('',#532,#137);
#98=LINE('',#537,#138);
#99=LINE('',#541,#139);
#100=LINE('',#544,#140);
#101=LINE('',#546,#141);
#102=VECTOR('',#378,10.);
#103=VECTOR('',#379,10.);
#104=VECTOR('',#380,10.);
#105=VECTOR('',#381,10.);
#106=VECTOR('',#384,10.);
#107=VECTOR('',#385,10.);
#108=VECTOR('',#386,10.);
#109=VECTOR('',#389,10.);
#110=VECTOR('',#390,10.);
#111=VECTOR('',#391,10.);
#112=VECTOR('',#394,10.);
#113=VECTOR('',#395,10.);
#114=VECTOR('',#400,10.);
#115=VECTOR('',#401,10.);
#116=VECTOR('',#402,10.);
#117=VECTOR('',#403,10.);
#118=VECTOR('',#406,10.);
#119=VECTOR('',#407,10.);
#120=VECTOR('',#408,10.);
#121=VECTOR('',#411,10.);
#122=VECTOR('',#412,10.);
#123=VECTOR('',#413,10.);
#124=VECTOR('',#416,10.);
#125=VECTOR('',#417,10.);
#126=VECTOR('',#422,10.);
#127=VECTOR('',#423,10.);
#128=VECTOR('',#424,10.);
#129=VECTOR('',#425,10.);
#130=VECTOR('',#428,10.);
#131=VECTOR('',#429,10.);
#132=VECTOR('',#430,10.);
#133=VECTOR('',#433,10.);
#134=VECTOR('',#434,10.);
#135=VECTOR('',#435,10.);
#136=VECTOR('',#438,10.);
#137=VECTOR('',#439,10.);
#138=VECTOR('',#444,10.);
#139=VECTOR('',#449,10.);
#140=VECTOR('',#452,10.);
#141=VECTOR('',#455,10.);
#142=VERTEX_POINT('',#460);
#143=VERTEX_POINT('',#461);
#144=VERTEX_POINT('',#463);
#145=VERTEX_POINT('',#465);
#146=VERTEX_POINT('',#469);
#147=VERTEX_POINT('',#471);
#148=VERTEX_POINT('',#475);
#149=VERTEX_POINT('',#477);
#150=VERTEX_POINT('',#485);
#151=VERTEX_POINT('',#486);
#152=VERTEX_POINT('',#488);
#153=VERTEX_POINT('',#490);
#154=VERTEX_POINT('',#494);
#155=VERTEX_POINT('',#496);
#156=VERTEX_POINT('',#500);
#157=VERTEX_POINT('',#502);
#158=VERTEX_POINT('',#510);
#159=VERTEX_POINT('',#511);
#160=VERTEX_POINT('',#513);
#161=VERTEX_POINT('',#515);
#162=VERTEX_POINT('',#519);
#163=VERTEX_POINT('',#521);
#164=VERTEX_POINT('',#525);
#165=VERTEX_POINT('',#527);
#166=VERTEX_POINT('',#535);
#167=VERTEX_POINT('',#536);
#168=VERTEX_POINT('',#540);
#169=VERTEX_POINT('',#542);
#170=EDGE_CURVE('',#142,#143,#62,.T.);
#171=EDGE_CURVE('',#142,#144,#63,.T.);
#172=EDGE_CURVE('',#144,#145,#64,.T.);
#173=EDGE_CURVE('',#143,#145,#65,.T.);
#174=EDGE_CURVE('',#146,#142,#66,.T.);
#175=EDGE_CURVE('',#146,#147,#67,.T.);
#176=EDGE_CURVE('',#147,#144,#68,.T.);
#177=EDGE_CURVE('',#148,#146,#69,.T.);
#178=EDGE_CURVE('',#148,#149,#70,.T.);
#179=EDGE_CURVE('',#149,#147,#71,.T.);
#180=EDGE_CURVE('',#143,#148,#72,.T.);
#181=EDGE_CURVE('',#145,#149,#73,.T.);
#182=EDGE_CURVE('',#150,#151,#74,.T.);
#183=EDGE_CURVE('',#150,#152,#75,.T.);
#184=EDGE_CURVE('',#152,#153,#76,.T.);
#185=EDGE_CURVE('',#151,#153,#77,.T.);
#186=EDGE_CURVE('',#154,#150,#78,.T.);
#187=EDGE_CURVE('',#154,#155,#79,.T.);
#188=EDGE_CURVE('',#155,#152,#80,.T.);
#189=EDGE_CURVE('',#156,#154,#81,.T.);
#190=EDGE_CURVE('',#156,#157,#82,.T.);
#191=EDGE_CURVE('',#157,#155,#83,.T.);
#192=EDGE_CURVE('',#151,#156,#84,.T.);
#193=EDGE_CURVE('',#153,#157,#85,.T.);
#194=EDGE_CURVE('',#158,#159,#86,.T.);
#195=EDGE_CURVE('',#158,#160,#87,.T.);
#196=EDGE_CURVE('',#160,#161,#88,.T.);
#197=EDGE_CURVE('',#159,#161,#89,.T.);
#198=EDGE_CURVE('',#162,#158,#90,.T.);
#199=EDGE_CURVE('',#162,#163,#91,.T.);
#200=EDGE_CURVE('',#163,#160,#92,.T.);
#201=EDGE_CURVE('',#164,#162,#93,.T.);
#202=EDGE_CURVE('',#164,#165,#94,.T.);
#203=EDGE_CURVE('',#165,#163,#95,.T.);
#204=EDGE_CURVE('',#159,#164,#96,.T.);
#205=EDGE_CURVE('',#161,#165,#97,.T.);
#206=EDGE_CURVE('',#166,#167,#98,.T.);
#207=EDGE_CURVE('',#167,#166,#19,.T.);
#208=EDGE_CURVE('',#168,#167,#99,.T.);
#209=EDGE_CURVE('',#169,#168,#20,.T.);
#210=EDGE_CURVE('',#166,#169,#100,.T.);
#211=EDGE_CURVE('',#168,#169,#101,.T.);
#212=ORIENTED_EDGE('',*,*,#170,.F.);
#213=ORIENTED_EDGE('',*,*,#171,.T.);
#214=ORIENTED_EDGE('',*,*,#172,.T.);
#215=ORIENTED_EDGE('',*,*,#173,.F.);
#216=ORIENTED_EDGE('',*,*,#174,.F.);
#217=ORIENTED_EDGE('',*,*,#175,.T.);
#218=ORIENTED_EDGE('',*,*,#176,.T.);
#219=ORIENTED_EDGE('',*,*,#171,.F.);
#220=ORIENTED_EDGE('',*,*,#177,.F.);
#221=ORIENTED_EDGE('',*,*,#178,.T.);
#222=ORIENTED_EDGE('',*,*,#179,.T.);
#223=ORIENTED_EDGE('',*,*,#175,.F.);
#224=ORIENTED_EDGE('',*,*,#180,.F.);
#225=ORIENTED_EDGE('',*,*,#173,.T.);
#226=ORIENTED_EDGE('',*,*,#181,.T.);
#227=ORIENTED_EDGE('',*,*,#178,.F.);
#228=ORIENTED_EDGE('',*,*,#181,.F.);
#229=ORIENTED_EDGE('',*,*,#172,.F.);
#230=ORIENTED_EDGE('',*,*,#176,.F.);
#231=ORIENTED_EDGE('',*,*,#179,.F.);
#232=ORIENTED_EDGE('',*,*,#182,.F.);
#233=ORIENTED_EDGE('',*,*,#183,.T.);
#234=ORIENTED_EDGE('',*,*,#184,.T.);
#235=ORIENTED_EDGE('',*,*,#185,.F.);
#236=ORIENTED_EDGE('',*,*,#186,.F.);
#237=ORIENTED_EDGE('',*,*,#187,.T.);
#238=ORIENTED_EDGE('',*,*,#188,.T.);
#239=ORIENTED_EDGE('',*,*,#183,.F.);
#240=ORIENTED_EDGE('',*,*,#189,.F.);
#241=ORIENTED_EDGE('',*,*,#190,.T.);
#242=ORIENTED_EDGE('',*,*,#191,.T.);
#243=ORIENTED_EDGE('',*,*,#187,.F.);
#244=ORIENTED_EDGE('',*,*,#192,.F.);
#245=ORIENTED_EDGE('',*,*,#185,.T.);
#246=ORIENTED_EDGE('',*,*,#193,.T.);
#247=ORIENTED_EDGE('',*,*,#190,.F.);
#248=ORIENTED_EDGE('',*,*,#193,.F.);
#249=ORIENTED_EDGE('',*,*,#184,.F.);
#250=ORIENTED_EDGE('',*,*,#188,.F.);
#251=ORIENTED_EDGE('',*,*,#191,.F.);
#252=ORIENTED_EDGE('',*,*,#194,.F.);
#253=ORIENTED_EDGE('',*,*,#195,.T.);
#254=ORIENTED_EDGE('',*,*,#196,.T.);
#255=ORIENTED_EDGE('',*,*,#197,.F.);
#256=ORIENTED_EDGE('',*,*,#198,.F.);
#257=ORIENTED_EDGE('',*,*,#199,.T.);
#258=ORIENTED_EDGE('',*,*,#200,.T.);
#259=ORIENTED_EDGE('',*,*,#195,.F.);
#260=ORIENTED_EDGE('',*,*,#201,.F.);
#261=ORIENTED_EDGE('',*,*,#202,.T.);
#262=ORIENTED_EDGE('',*,*,#203,.T.);
#263=ORIENTED_EDGE('',*,*,#199,.F.);
#264=ORIENTED_EDGE('',*,*,#204,.F.);
#265=ORIENTED_EDGE('',*,*,#197,.T.);
#266=ORIENTED_EDGE('',*,*,#205,.T.);
#267=ORIENTED_EDGE('',*,*,#202,.F.);
#268=ORIENTED_EDGE('',*,*,#205,.F.);
#269=ORIENTED_EDGE('',*,*,#196,.F.);
#270=ORIENTED_EDGE('',*,*,#200,.F.);
#271=ORIENTED_EDGE('',*,*,#203,.F.);
#272=ORIENTED_EDGE('',*,*,#206,.T.);
#273=ORIENTED_EDGE('',*,*,#207,.T.);
#274=ORIENTED_EDGE('',*,*,#208,.F.);
#275=ORIENTED_EDGE('',*,*,#209,.F.);
#276=ORIENTED_EDGE('',*,*,#210,.F.);
#277=ORIENTED_EDGE('',*,*,#207,.F.);
#278=ORIENTED_EDGE('',*,*,#210,.T.);
#279=ORIENTED_EDGE('',*,*,#211,.F.);
#280=ORIENTED_EDGE('',*,*,#208,.T.);
#281=ORIENTED_EDGE('',*,*,#206,.F.);
#282=ORIENTED_EDGE('',*,*,#170,.T.);
#283=ORIENTED_EDGE('',*,*,#180,.T.);
#284=ORIENTED_EDGE('',*,*,#177,.T.);
#285=ORIENTED_EDGE('',*,*,#174,.T.);
#286=ORIENTED_EDGE('',*,*,#182,.T.);
#287=ORIENTED_EDGE('',*,*,#192,.T.);
#288=ORIENTED_EDGE('',*,*,#189,.T.);
#289=ORIENTED_EDGE('',*,*,#186,.T.);
#290=ORIENTED_EDGE('',*,*,#194,.T.);
#291=ORIENTED_EDGE('',*,*,#204,.T.);
#292=ORIENTED_EDGE('',*,*,#201,.T.);
#293=ORIENTED_EDGE('',*,*,#198,.T.);
#294=ORIENTED_EDGE('',*,*,#211,.T.);
#295=ORIENTED_EDGE('',*,*,#209,.T.);
#296=PLANE('',#353);
#297=PLANE('',#354);
#298=PLANE('',#355);
#299=PLANE('',#356);
#300=PLANE('',#357);
#301=PLANE('',#358);
#302=PLANE('',#359);
#303=PLANE('',#360);
#304=PLANE('',#361);
#305=PLANE('',#362);
#306=PLANE('',#363);
#307=PLANE('',#364);
#308=PLANE('',#365);
#309=PLANE('',#366);
#310=PLANE('',#367);
#311=PLANE('',#368);
#312=PLANE('',#372);
#313=PLANE('',#373);
#314=ADVANCED_FACE('',(#21),#296,.F.);
#315=ADVANCED_FACE('',(#22),#297,.F.);
#316=ADVANCED_FACE('',(#23),#298,.F.);
#317=ADVANCED_FACE('',(#24),#299,.F.);
#318=ADVANCED_FACE('',(#25),#300,.F.);
#319=ADVANCED_FACE('',(#26),#301,.F.);
#320=ADVANCED_FACE('',(#27),#302,.F.);
#321=ADVANCED_FACE('',(#28),#303,.F.);
#322=ADVANCED_FACE('',(#29),#304,.F.);
#323=ADVANCED_FACE('',(#30),#305,.F.);
#324=ADVANCED_FACE('',(#31),#306,.F.);
#325=ADVANCED_FACE('',(#32),#307,.F.);
#326=ADVANCED_FACE('',(#33),#308,.F.);
#327=ADVANCED_FACE('',(#34),#309,.F.);
#328=ADVANCED_FACE('',(#35),#310,.F.);
#329=ADVANCED_FACE('',(#36),#311,.F.);
#330=ADVANCED_FACE('',(#37),#18,.T.);
#331=ADVANCED_FACE('',(#38,#15,#16,#17),#312,.T.);
#332=ADVANCED_FACE('',(#39),#313,.T.);
#333=CLOSED_SHELL('',(#314,#315,#316,#317,#318,#319,#320,#321,#322,#323,
#324,#325,#326,#327,#328,#329,#330,#331,#332));
#334=DERIVED_UNIT_ELEMENT(#336,1.);
#335=DERIVED_UNIT_ELEMENT(#553,3.);
#336=(
MASS_UNIT()
NAMED_UNIT(*)
SI_UNIT($,.GRAM.)
);
#337=DERIVED_UNIT((#334,#335));
#338=MEASURE_REPRESENTATION_ITEM('density measure',
POSITIVE_RATIO_MEASURE(1.),#337);
#339=PROPERTY_DEFINITION_REPRESENTATION(#344,#341);
#340=PROPERTY_DEFINITION_REPRESENTATION(#345,#342);
#341=REPRESENTATION('material name',(#343),#550);
#342=REPRESENTATION('density',(#338),#550);
#343=DESCRIPTIVE_REPRESENTATION_ITEM('Allgemein','Allgemein');
#344=PROPERTY_DEFINITION('material property','material name',#560);
#345=PROPERTY_DEFINITION('material property','density of part',#560);
#346=DATE_TIME_ROLE('creation_date');
#347=APPLIED_DATE_AND_TIME_ASSIGNMENT(#348,#346,(#560));
#348=DATE_AND_TIME(#349,#350);
#349=CALENDAR_DATE(2021,16,8);
#350=LOCAL_TIME(5,22,21.,#351);
#351=COORDINATED_UNIVERSAL_TIME_OFFSET(0,0,.BEHIND.);
#352=AXIS2_PLACEMENT_3D('placement',#458,#374,#375);
#353=AXIS2_PLACEMENT_3D('',#459,#376,#377);
#354=AXIS2_PLACEMENT_3D('',#468,#382,#383);
#355=AXIS2_PLACEMENT_3D('',#474,#387,#388);
#356=AXIS2_PLACEMENT_3D('',#480,#392,#393);
#357=AXIS2_PLACEMENT_3D('',#483,#396,#397);
#358=AXIS2_PLACEMENT_3D('',#484,#398,#399);
#359=AXIS2_PLACEMENT_3D('',#493,#404,#405);
#360=AXIS2_PLACEMENT_3D('',#499,#409,#410);
#361=AXIS2_PLACEMENT_3D('',#505,#414,#415);
#362=AXIS2_PLACEMENT_3D('',#508,#418,#419);
#363=AXIS2_PLACEMENT_3D('',#509,#420,#421);
#364=AXIS2_PLACEMENT_3D('',#518,#426,#427);
#365=AXIS2_PLACEMENT_3D('',#524,#431,#432);
#366=AXIS2_PLACEMENT_3D('',#530,#436,#437);
#367=AXIS2_PLACEMENT_3D('',#533,#440,#441);
#368=AXIS2_PLACEMENT_3D('',#534,#442,#443);
#369=AXIS2_PLACEMENT_3D('',#538,#445,#446);
#370=AXIS2_PLACEMENT_3D('',#539,#447,#448);
#371=AXIS2_PLACEMENT_3D('',#543,#450,#451);
#372=AXIS2_PLACEMENT_3D('',#545,#453,#454);
#373=AXIS2_PLACEMENT_3D('',#547,#456,#457);
#374=DIRECTION('axis',(0.,0.,1.));
#375=DIRECTION('refdir',(1.,0.,0.));
#376=DIRECTION('center_axis',(1.38777878078144E-16,0.,1.));
#377=DIRECTION('ref_axis',(-1.,0.,1.38777878078144E-16));
#378=DIRECTION('',(-1.,0.,1.38777878078144E-16));
#379=DIRECTION('',(0.,-1.,0.));
#380=DIRECTION('',(-1.,0.,1.38777878078144E-16));
#381=DIRECTION('',(0.,-1.,0.));
#382=DIRECTION('center_axis',(1.,0.,0.));
#383=DIRECTION('ref_axis',(0.,0.,1.));
#384=DIRECTION('',(0.,0.,1.));
#385=DIRECTION('',(0.,-1.,0.));
#386=DIRECTION('',(0.,0.,1.));
#387=DIRECTION('center_axis',(9.25185853854296E-17,0.,-1.));
#388=DIRECTION('ref_axis',(1.,0.,9.25185853854296E-17));
#389=DIRECTION('',(1.,0.,9.25185853854296E-17));
#390=DIRECTION('',(0.,-1.,0.));
#391=DIRECTION('',(1.,0.,9.25185853854296E-17));
#392=DIRECTION('center_axis',(-1.,0.,0.));
#393=DIRECTION('ref_axis',(0.,0.,-1.));
#394=DIRECTION('',(0.,0.,-1.));
#395=DIRECTION('',(0.,0.,-1.));
#396=DIRECTION('center_axis',(0.,-1.,0.));
#397=DIRECTION('ref_axis',(0.,0.,-1.));
#398=DIRECTION('center_axis',(1.,0.,0.));
#399=DIRECTION('ref_axis',(0.,0.,1.));
#400=DIRECTION('',(0.,0.,1.));
#401=DIRECTION('',(0.,-1.,0.));
#402=DIRECTION('',(0.,0.,1.));
#403=DIRECTION('',(0.,-1.,0.));
#404=DIRECTION('center_axis',(0.,0.,-1.));
#405=DIRECTION('ref_axis',(1.,0.,0.));
#406=DIRECTION('',(1.,0.,0.));
#407=DIRECTION('',(0.,-1.,0.));
#408=DIRECTION('',(1.,0.,0.));
#409=DIRECTION('center_axis',(-1.,0.,0.));
#410=DIRECTION('ref_axis',(0.,0.,-1.));
#411=DIRECTION('',(0.,0.,-1.));
#412=DIRECTION('',(0.,-1.,0.));
#413=DIRECTION('',(0.,0.,-1.));
#414=DIRECTION('center_axis',(0.,0.,1.));
#415=DIRECTION('ref_axis',(-1.,0.,0.));
#416=DIRECTION('',(-1.,0.,0.));
#417=DIRECTION('',(-1.,0.,0.));
#418=DIRECTION('center_axis',(0.,-1.,0.));
#419=DIRECTION('ref_axis',(0.,0.,-1.));
#420=DIRECTION('center_axis',(-1.,0.,0.));
#421=DIRECTION('ref_axis',(0.,0.,-1.));
#422=DIRECTION('',(0.,0.,-1.));
#423=DIRECTION('',(0.,-1.,0.));
#424=DIRECTION('',(0.,0.,-1.));
#425=DIRECTION('',(0.,-1.,0.));
#426=DIRECTION('center_axis',(0.,0.,1.));
#427=DIRECTION('ref_axis',(-1.,0.,0.));
#428=DIRECTION('',(-1.,0.,0.));
#429=DIRECTION('',(0.,-1.,0.));
#430=DIRECTION('',(-1.,0.,0.));
#431=DIRECTION('center_axis',(1.,0.,0.));
#432=DIRECTION('ref_axis',(0.,0.,1.));
#433=DIRECTION('',(0.,0.,1.));
#434=DIRECTION('',(0.,-1.,0.));
#435=DIRECTION('',(0.,0.,1.));
#436=DIRECTION('center_axis',(0.,0.,-1.));
#437=DIRECTION('ref_axis',(1.,0.,0.));
#438=DIRECTION('',(1.,0.,0.));
#439=DIRECTION('',(1.,0.,0.));
#440=DIRECTION('center_axis',(0.,-1.,0.));
#441=DIRECTION('ref_axis',(0.,0.,-1.));
#442=DIRECTION('center_axis',(0.,0.,1.));
#443=DIRECTION('ref_axis',(1.,0.,0.));
#444=DIRECTION('',(1.,0.,0.));
#445=DIRECTION('center_axis',(0.,0.,-1.));
#446=DIRECTION('ref_axis',(-0.683447144993671,-0.73,0.));
#447=DIRECTION('center_axis',(0.,0.,1.));
#448=DIRECTION('ref_axis',(-0.683447144993671,-0.73,0.));
#449=DIRECTION('',(0.,0.,-1.));
#450=DIRECTION('center_axis',(0.,0.,1.));
#451=DIRECTION('ref_axis',(-0.683447144993671,-0.73,0.));
#452=DIRECTION('',(0.,0.,1.));
#453=DIRECTION('center_axis',(0.,1.,0.));
#454=DIRECTION('ref_axis',(-1.,0.,0.));
#455=DIRECTION('',(-1.,0.,0.));
#456=DIRECTION('center_axis',(0.,0.,1.));
#457=DIRECTION('ref_axis',(1.,0.,0.));
#458=CARTESIAN_POINT('',(0.,0.,0.));
#459=CARTESIAN_POINT('Origin',(6.00000000000001,-36.5,2.));
#460=CARTESIAN_POINT('',(6.00000000000001,-36.5,2.));
#461=CARTESIAN_POINT('',(-6.00000000000001,-36.5,2.));
#462=CARTESIAN_POINT('',(20.0861786248418,-36.5,2.));
#463=CARTESIAN_POINT('',(6.00000000000001,-43.8,2.));
#464=CARTESIAN_POINT('',(6.00000000000001,-36.5,2.));
#465=CARTESIAN_POINT('',(-6.00000000000001,-43.8,2.));
#466=CARTESIAN_POINT('',(-6.00000000000001,-43.8,2.));
#467=CARTESIAN_POINT('',(-6.00000000000001,-36.5,2.));
#468=CARTESIAN_POINT('Origin',(6.00000000000001,-36.5,-2.));
#469=CARTESIAN_POINT('',(6.00000000000001,-36.5,-2.));
#470=CARTESIAN_POINT('',(6.00000000000001,-36.5,-1.));
#471=CARTESIAN_POINT('',(6.00000000000001,-43.8,-2.));
#472=CARTESIAN_POINT('',(6.00000000000001,-36.5,-2.));
#473=CARTESIAN_POINT('',(6.00000000000001,-43.8,2.));
#474=CARTESIAN_POINT('Origin',(-6.00000000000001,-36.5,-2.));
#475=CARTESIAN_POINT('',(-6.00000000000001,-36.5,-2.));
#476=CARTESIAN_POINT('',(14.0861786248418,-36.5,-2.));
#477=CARTESIAN_POINT('',(-6.00000000000001,-43.8,-2.));
#478=CARTESIAN_POINT('',(-6.00000000000001,-36.5,-2.));
#479=CARTESIAN_POINT('',(6.00000000000001,-43.8,-2.));
#480=CARTESIAN_POINT('Origin',(-6.00000000000001,-36.5,2.));
#481=CARTESIAN_POINT('',(-6.00000000000001,-36.5,1.));
#482=CARTESIAN_POINT('',(-6.00000000000001,-43.8,-2.));
#483=CARTESIAN_POINT('Origin',(0.,-43.8,0.));
#484=CARTESIAN_POINT('Origin',(21.75,-36.5,-2.));
#485=CARTESIAN_POINT('',(21.75,-36.5,-2.));
#486=CARTESIAN_POINT('',(21.75,-36.5,2.));
#487=CARTESIAN_POINT('',(21.75,-36.5,-1.));
#488=CARTESIAN_POINT('',(21.75,-41.3,-2.));
#489=CARTESIAN_POINT('',(21.75,-36.5,-2.));
#490=CARTESIAN_POINT('',(21.75,-41.3,2.));
#491=CARTESIAN_POINT('',(21.75,-41.3,2.));
#492=CARTESIAN_POINT('',(21.75,-36.5,2.));
#493=CARTESIAN_POINT('Origin',(14.25,-36.5,-2.));
#494=CARTESIAN_POINT('',(14.25,-36.5,-2.));
#495=CARTESIAN_POINT('',(24.2111786248418,-36.5,-2.));
#496=CARTESIAN_POINT('',(14.25,-41.3,-2.));
#497=CARTESIAN_POINT('',(14.25,-36.5,-2.));
#498=CARTESIAN_POINT('',(21.75,-41.3,-2.));
#499=CARTESIAN_POINT('Origin',(14.25,-36.5,2.));
#500=CARTESIAN_POINT('',(14.25,-36.5,2.));
#501=CARTESIAN_POINT('',(14.25,-36.5,1.));
#502=CARTESIAN_POINT('',(14.25,-41.3,2.));
#503=CARTESIAN_POINT('',(14.25,-36.5,2.));
#504=CARTESIAN_POINT('',(14.25,-41.3,-2.));
#505=CARTESIAN_POINT('Origin',(21.75,-36.5,2.));
#506=CARTESIAN_POINT('',(27.9611786248418,-36.5,2.));
#507=CARTESIAN_POINT('',(14.25,-41.3,2.));
#508=CARTESIAN_POINT('Origin',(18.,-41.3,0.));
#509=CARTESIAN_POINT('Origin',(-21.75,-36.5,2.));
#510=CARTESIAN_POINT('',(-21.75,-36.5,2.));
#511=CARTESIAN_POINT('',(-21.75,-36.5,-2.));
#512=CARTESIAN_POINT('',(-21.75,-36.5,1.));
#513=CARTESIAN_POINT('',(-21.75,-41.3,2.));
#514=CARTESIAN_POINT('',(-21.75,-36.5,2.));
#515=CARTESIAN_POINT('',(-21.75,-41.3,-2.));
#516=CARTESIAN_POINT('',(-21.75,-41.3,-2.));
#517=CARTESIAN_POINT('',(-21.75,-36.5,-2.));
#518=CARTESIAN_POINT('Origin',(-14.25,-36.5,2.));
#519=CARTESIAN_POINT('',(-14.25,-36.5,2.));
#520=CARTESIAN_POINT('',(9.96117862484177,-36.5,2.));
#521=CARTESIAN_POINT('',(-14.25,-41.3,2.));
#522=CARTESIAN_POINT('',(-14.25,-36.5,2.));
#523=CARTESIAN_POINT('',(-21.75,-41.3,2.));
#524=CARTESIAN_POINT('Origin',(-14.25,-36.5,-2.));
#525=CARTESIAN_POINT('',(-14.25,-36.5,-2.));
#526=CARTESIAN_POINT('',(-14.25,-36.5,-1.));
#527=CARTESIAN_POINT('',(-14.25,-41.3,-2.));
#528=CARTESIAN_POINT('',(-14.25,-36.5,-2.));
#529=CARTESIAN_POINT('',(-14.25,-41.3,2.));
#530=CARTESIAN_POINT('Origin',(-21.75,-36.5,-2.));
#531=CARTESIAN_POINT('',(6.21117862484177,-36.5,-2.));
#532=CARTESIAN_POINT('',(-14.25,-41.3,-2.));
#533=CARTESIAN_POINT('Origin',(-18.,-41.3,0.));
#534=CARTESIAN_POINT('Origin',(0.,-43.25,-4.9));
#535=CARTESIAN_POINT('',(-34.1723572496835,-36.5,-4.9));
#536=CARTESIAN_POINT('',(34.1723572496835,-36.5,-4.9));
#537=CARTESIAN_POINT('',(34.1723572496835,-36.5,-4.9));
#538=CARTESIAN_POINT('Origin',(0.,0.,-4.9));
#539=CARTESIAN_POINT('Origin',(0.,0.,0.));
#540=CARTESIAN_POINT('',(34.1723572496835,-36.5,4.9));
#541=CARTESIAN_POINT('',(34.1723572496835,-36.5,0.));
#542=CARTESIAN_POINT('',(-34.1723572496835,-36.5,4.9));
#543=CARTESIAN_POINT('Origin',(0.,0.,4.9));
#544=CARTESIAN_POINT('',(-34.1723572496835,-36.5,0.));
#545=CARTESIAN_POINT('Origin',(34.1723572496835,-36.5,0.));
#546=CARTESIAN_POINT('',(34.1723572496835,-36.5,4.9));
#547=CARTESIAN_POINT('Origin',(0.,-43.25,4.9));
#548=UNCERTAINTY_MEASURE_WITH_UNIT(LENGTH_MEASURE(0.01),#552,
'DISTANCE_ACCURACY_VALUE',
'Maximum model space distance between geometric entities at asserted c
onnectivities');
#549=UNCERTAINTY_MEASURE_WITH_UNIT(LENGTH_MEASURE(0.01),#552,
'DISTANCE_ACCURACY_VALUE',
'Maximum model space distance between geometric entities at asserted c
onnectivities');
#550=(
GEOMETRIC_REPRESENTATION_CONTEXT(3)
GLOBAL_UNCERTAINTY_ASSIGNED_CONTEXT((#548))
GLOBAL_UNIT_ASSIGNED_CONTEXT((#552,#554,#555))
REPRESENTATION_CONTEXT('','3D')
);
#551=(
GEOMETRIC_REPRESENTATION_CONTEXT(3)
GLOBAL_UNCERTAINTY_ASSIGNED_CONTEXT((#549))
GLOBAL_UNIT_ASSIGNED_CONTEXT((#552,#554,#555))
REPRESENTATION_CONTEXT('','3D')
);
#552=(
LENGTH_UNIT()
NAMED_UNIT(*)
SI_UNIT(.MILLI.,.METRE.)
);
#553=(
LENGTH_UNIT()
NAMED_UNIT(*)
SI_UNIT(.CENTI.,.METRE.)
);
#554=(
NAMED_UNIT(*)
PLANE_ANGLE_UNIT()
SI_UNIT($,.RADIAN.)
);
#555=(
NAMED_UNIT(*)
SI_UNIT($,.STERADIAN.)
SOLID_ANGLE_UNIT()
);
#556=SHAPE_DEFINITION_REPRESENTATION(#557,#558);
#557=PRODUCT_DEFINITION_SHAPE('',$,#560);
#558=SHAPE_REPRESENTATION('',(#352),#550);
#559=PRODUCT_DEFINITION_CONTEXT('part definition',#564,'design');
#560=PRODUCT_DEFINITION('Clamex P14_Oberteil',
'Clamex_P-14_Verbinderhaelfte_ohne_Hebel_s',#561,#559);
#561=PRODUCT_DEFINITION_FORMATION('',$,#566);
#562=PRODUCT_RELATED_PRODUCT_CATEGORY(
'Clamex_P-14_Verbinderhaelfte_ohne_Hebel_s',
'Clamex_P-14_Verbinderhaelfte_ohne_Hebel_s',(#566));
#563=APPLICATION_PROTOCOL_DEFINITION('international standard',
'automotive_design',2009,#564);
#564=APPLICATION_CONTEXT(
'Core Data for Automotive Mechanical Design Process');
#565=PRODUCT_CONTEXT('part definition',#564,'mechanical');
#566=PRODUCT('Clamex P14_Oberteil',
'Clamex_P-14_Verbinderhaelfte_ohne_Hebel_s',$,(#565));
#567=PRESENTATION_STYLE_ASSIGNMENT((#568));
#568=SURFACE_STYLE_USAGE(.BOTH.,#571);
#569=SURFACE_STYLE_RENDERING_WITH_PROPERTIES($,#575,(#570));
#570=SURFACE_STYLE_TRANSPARENT(0.);
#571=SURFACE_SIDE_STYLE('',(#572,#569));
#572=SURFACE_STYLE_FILL_AREA(#573);
#573=FILL_AREA_STYLE('',(#574));
#574=FILL_AREA_STYLE_COLOUR('',#575);
#575=COLOUR_RGB('',0.749019607843137,0.749019607843137,0.749019607843137);
ENDSEC;
END-ISO-10303-21;
