ISO-10303-21;
HEADER;
/* Generated by software containing ST-Developer
 * from STEP Tools, Inc. (www.steptools.com) 
 */

FILE_DESCRIPTION(
/* description */ (''),
/* implementation_level */ '2;1');

FILE_NAME(
/* name */ 
'C:\\Users\\matthiask.LAMELLONET\\Desktop\\\X\D6fftentliche Daten\\CAD
-Clamex P-10\\CAD Daten mit kleinerer Dateigr\X\F6sse\\Clamex_P-10_Ver
binderhaelfte_ohne_Hebel_s.stp',
/* time_stamp */ '2022-06-29T15:31:36+02:00',
/* author */ ('matthiask'),
/* organization */ (''),
/* preprocessor_version */ 'ST-DEVELOPER v18',
/* originating_system */ 'Autodesk Inventor 2020',
/* authorisation */ '');

FILE_SCHEMA (('AUTOMOTIVE_DESIGN { 1 0 10303 214 3 1 1 }'));
ENDSEC;

DATA;
#10=MECHANICAL_DESIGN_GEOMETRIC_PRESENTATION_REPRESENTATION('',(#13),#609);
#11=SHAPE_REPRESENTATION_RELATIONSHIP('SRR','None',#616,#12);
#12=ADVANCED_BREP_SHAPE_REPRESENTATION('',(#14),#608);
#13=STYLED_ITEM('',(#625),#14);
#14=MANIFOLD_SOLID_BREP('Volumenk\X\F6rper1',#367);
#15=CYLINDRICAL_SURFACE('',#409,50.);
#16=FACE_BOUND('',#63,.T.);
#17=FACE_BOUND('',#64,.T.);
#18=FACE_BOUND('',#65,.T.);
#19=FACE_BOUND('',#67,.T.);
#20=FACE_BOUND('',#68,.T.);
#21=CIRCLE('',#393,50.);
#22=CIRCLE('',#397,50.);
#23=CIRCLE('',#400,50.);
#24=CIRCLE('',#404,50.);
#25=CIRCLE('',#407,50.);
#26=CIRCLE('',#410,50.);
#27=FACE_OUTER_BOUND('',#46,.T.);
#28=FACE_OUTER_BOUND('',#47,.T.);
#29=FACE_OUTER_BOUND('',#48,.T.);
#30=FACE_OUTER_BOUND('',#49,.T.);
#31=FACE_OUTER_BOUND('',#50,.T.);
#32=FACE_OUTER_BOUND('',#51,.T.);
#33=FACE_OUTER_BOUND('',#52,.T.);
#34=FACE_OUTER_BOUND('',#53,.T.);
#35=FACE_OUTER_BOUND('',#54,.T.);
#36=FACE_OUTER_BOUND('',#55,.T.);
#37=FACE_OUTER_BOUND('',#56,.T.);
#38=FACE_OUTER_BOUND('',#57,.T.);
#39=FACE_OUTER_BOUND('',#58,.T.);
#40=FACE_OUTER_BOUND('',#59,.T.);
#41=FACE_OUTER_BOUND('',#60,.T.);
#42=FACE_OUTER_BOUND('',#61,.T.);
#43=FACE_OUTER_BOUND('',#62,.T.);
#44=FACE_OUTER_BOUND('',#66,.T.);
#45=FACE_OUTER_BOUND('',#69,.T.);
#46=EDGE_LOOP('',(#234,#235,#236,#237));
#47=EDGE_LOOP('',(#238,#239,#240,#241));
#48=EDGE_LOOP('',(#242,#243,#244,#245));
#49=EDGE_LOOP('',(#246,#247,#248,#249));
#50=EDGE_LOOP('',(#250,#251,#252,#253));
#51=EDGE_LOOP('',(#254,#255,#256,#257,#258));
#52=EDGE_LOOP('',(#259,#260,#261,#262));
#53=EDGE_LOOP('',(#263,#264,#265,#266));
#54=EDGE_LOOP('',(#267,#268,#269,#270,#271));
#55=EDGE_LOOP('',(#272,#273,#274,#275));
#56=EDGE_LOOP('',(#276,#277,#278,#279,#280));
#57=EDGE_LOOP('',(#281,#282,#283,#284));
#58=EDGE_LOOP('',(#285,#286,#287,#288));
#59=EDGE_LOOP('',(#289,#290,#291,#292,#293));
#60=EDGE_LOOP('',(#294,#295,#296,#297));
#61=EDGE_LOOP('',(#298,#299));
#62=EDGE_LOOP('',(#300,#301,#302,#303));
#63=EDGE_LOOP('',(#304,#305,#306,#307));
#64=EDGE_LOOP('',(#308,#309,#310,#311));
#65=EDGE_LOOP('',(#312,#313,#314,#315));
#66=EDGE_LOOP('',(#316,#317,#318,#319));
#67=EDGE_LOOP('',(#320,#321,#322,#323));
#68=EDGE_LOOP('',(#324,#325,#326,#327));
#69=EDGE_LOOP('',(#328,#329));
#70=LINE('',#510,#112);
#71=LINE('',#512,#113);
#72=LINE('',#514,#114);
#73=LINE('',#515,#115);
#74=LINE('',#518,#116);
#75=LINE('',#520,#117);
#76=LINE('',#521,#118);
#77=LINE('',#524,#119);
#78=LINE('',#526,#120);
#79=LINE('',#527,#121);
#80=LINE('',#529,#122);
#81=LINE('',#530,#123);
#82=LINE('',#537,#124);
#83=LINE('',#539,#125);
#84=LINE('',#541,#126);
#85=LINE('',#542,#127);
#86=LINE('',#545,#128);
#87=LINE('',#547,#129);
#88=LINE('',#548,#130);
#89=LINE('',#551,#131);
#90=LINE('',#552,#132);
#91=LINE('',#557,#133);
#92=LINE('',#558,#134);
#93=LINE('',#560,#135);
#94=LINE('',#561,#136);
#95=LINE('',#567,#137);
#96=LINE('',#569,#138);
#97=LINE('',#571,#139);
#98=LINE('',#572,#140);
#99=LINE('',#575,#141);
#100=LINE('',#577,#142);
#101=LINE('',#578,#143);
#102=LINE('',#581,#144);
#103=LINE('',#582,#145);
#104=LINE('',#587,#146);
#105=LINE('',#588,#147);
#106=LINE('',#590,#148);
#107=LINE('',#591,#149);
#108=LINE('',#596,#150);
#109=LINE('',#599,#151);
#110=LINE('',#601,#152);
#111=LINE('',#602,#153);
#112=VECTOR('',#416,10.);
#113=VECTOR('',#417,10.);
#114=VECTOR('',#418,10.);
#115=VECTOR('',#419,10.);
#116=VECTOR('',#422,10.);
#117=VECTOR('',#423,10.);
#118=VECTOR('',#424,10.);
#119=VECTOR('',#427,10.);
#120=VECTOR('',#428,10.);
#121=VECTOR('',#429,10.);
#122=VECTOR('',#432,10.);
#123=VECTOR('',#433,10.);
#124=VECTOR('',#440,10.);
#125=VECTOR('',#441,10.);
#126=VECTOR('',#442,10.);
#127=VECTOR('',#443,10.);
#128=VECTOR('',#446,10.);
#129=VECTOR('',#447,10.);
#130=VECTOR('',#448,10.);
#131=VECTOR('',#451,10.);
#132=VECTOR('',#452,10.);
#133=VECTOR('',#457,10.);
#134=VECTOR('',#458,10.);
#135=VECTOR('',#461,10.);
#136=VECTOR('',#462,10.);
#137=VECTOR('',#467,10.);
#138=VECTOR('',#468,10.);
#139=VECTOR('',#469,10.);
#140=VECTOR('',#470,10.);
#141=VECTOR('',#473,10.);
#142=VECTOR('',#474,10.);
#143=VECTOR('',#475,10.);
#144=VECTOR('',#478,10.);
#145=VECTOR('',#479,10.);
#146=VECTOR('',#484,10.);
#147=VECTOR('',#485,10.);
#148=VECTOR('',#488,10.);
#149=VECTOR('',#489,10.);
#150=VECTOR('',#494,10.);
#151=VECTOR('',#497,10.);
#152=VECTOR('',#498,10.);
#153=VECTOR('',#499,10.);
#154=VERTEX_POINT('',#508);
#155=VERTEX_POINT('',#509);
#156=VERTEX_POINT('',#511);
#157=VERTEX_POINT('',#513);
#158=VERTEX_POINT('',#517);
#159=VERTEX_POINT('',#519);
#160=VERTEX_POINT('',#523);
#161=VERTEX_POINT('',#525);
#162=VERTEX_POINT('',#533);
#163=VERTEX_POINT('',#534);
#164=VERTEX_POINT('',#536);
#165=VERTEX_POINT('',#538);
#166=VERTEX_POINT('',#540);
#167=VERTEX_POINT('',#544);
#168=VERTEX_POINT('',#546);
#169=VERTEX_POINT('',#550);
#170=VERTEX_POINT('',#554);
#171=VERTEX_POINT('',#556);
#172=VERTEX_POINT('',#563);
#173=VERTEX_POINT('',#564);
#174=VERTEX_POINT('',#566);
#175=VERTEX_POINT('',#568);
#176=VERTEX_POINT('',#570);
#177=VERTEX_POINT('',#574);
#178=VERTEX_POINT('',#576);
#179=VERTEX_POINT('',#580);
#180=VERTEX_POINT('',#584);
#181=VERTEX_POINT('',#586);
#182=VERTEX_POINT('',#593);
#183=VERTEX_POINT('',#594);
#184=VERTEX_POINT('',#598);
#185=VERTEX_POINT('',#600);
#186=EDGE_CURVE('',#154,#155,#70,.T.);
#187=EDGE_CURVE('',#154,#156,#71,.T.);
#188=EDGE_CURVE('',#156,#157,#72,.T.);
#189=EDGE_CURVE('',#155,#157,#73,.T.);
#190=EDGE_CURVE('',#158,#154,#74,.T.);
#191=EDGE_CURVE('',#158,#159,#75,.T.);
#192=EDGE_CURVE('',#159,#156,#76,.T.);
#193=EDGE_CURVE('',#160,#158,#77,.T.);
#194=EDGE_CURVE('',#160,#161,#78,.T.);
#195=EDGE_CURVE('',#161,#159,#79,.T.);
#196=EDGE_CURVE('',#155,#160,#80,.T.);
#197=EDGE_CURVE('',#157,#161,#81,.T.);
#198=EDGE_CURVE('',#162,#163,#21,.T.);
#199=EDGE_CURVE('',#164,#162,#82,.T.);
#200=EDGE_CURVE('',#165,#164,#83,.T.);
#201=EDGE_CURVE('',#165,#166,#84,.T.);
#202=EDGE_CURVE('',#166,#163,#85,.T.);
#203=EDGE_CURVE('',#163,#167,#86,.T.);
#204=EDGE_CURVE('',#168,#166,#87,.T.);
#205=EDGE_CURVE('',#167,#168,#88,.T.);
#206=EDGE_CURVE('',#169,#165,#89,.T.);
#207=EDGE_CURVE('',#169,#168,#90,.T.);
#208=EDGE_CURVE('',#167,#170,#22,.T.);
#209=EDGE_CURVE('',#171,#169,#91,.T.);
#210=EDGE_CURVE('',#171,#170,#92,.T.);
#211=EDGE_CURVE('',#170,#162,#93,.T.);
#212=EDGE_CURVE('',#164,#171,#94,.T.);
#213=EDGE_CURVE('',#172,#173,#23,.T.);
#214=EDGE_CURVE('',#174,#172,#95,.T.);
#215=EDGE_CURVE('',#175,#174,#96,.T.);
#216=EDGE_CURVE('',#175,#176,#97,.T.);
#217=EDGE_CURVE('',#176,#173,#98,.T.);
#218=EDGE_CURVE('',#173,#177,#99,.T.);
#219=EDGE_CURVE('',#178,#176,#100,.T.);
#220=EDGE_CURVE('',#177,#178,#101,.T.);
#221=EDGE_CURVE('',#179,#175,#102,.T.);
#222=EDGE_CURVE('',#179,#178,#103,.T.);
#223=EDGE_CURVE('',#177,#180,#24,.T.);
#224=EDGE_CURVE('',#181,#179,#104,.T.);
#225=EDGE_CURVE('',#181,#180,#105,.T.);
#226=EDGE_CURVE('',#180,#172,#106,.T.);
#227=EDGE_CURVE('',#174,#181,#107,.T.);
#228=EDGE_CURVE('',#182,#183,#25,.T.);
#229=EDGE_CURVE('',#183,#182,#108,.T.);
#230=EDGE_CURVE('',#184,#183,#109,.T.);
#231=EDGE_CURVE('',#185,#184,#110,.T.);
#232=EDGE_CURVE('',#182,#185,#111,.T.);
#233=EDGE_CURVE('',#184,#185,#26,.T.);
#234=ORIENTED_EDGE('',*,*,#186,.F.);
#235=ORIENTED_EDGE('',*,*,#187,.T.);
#236=ORIENTED_EDGE('',*,*,#188,.T.);
#237=ORIENTED_EDGE('',*,*,#189,.F.);
#238=ORIENTED_EDGE('',*,*,#190,.F.);
#239=ORIENTED_EDGE('',*,*,#191,.T.);
#240=ORIENTED_EDGE('',*,*,#192,.T.);
#241=ORIENTED_EDGE('',*,*,#187,.F.);
#242=ORIENTED_EDGE('',*,*,#193,.F.);
#243=ORIENTED_EDGE('',*,*,#194,.T.);
#244=ORIENTED_EDGE('',*,*,#195,.T.);
#245=ORIENTED_EDGE('',*,*,#191,.F.);
#246=ORIENTED_EDGE('',*,*,#196,.F.);
#247=ORIENTED_EDGE('',*,*,#189,.T.);
#248=ORIENTED_EDGE('',*,*,#197,.T.);
#249=ORIENTED_EDGE('',*,*,#194,.F.);
#250=ORIENTED_EDGE('',*,*,#197,.F.);
#251=ORIENTED_EDGE('',*,*,#188,.F.);
#252=ORIENTED_EDGE('',*,*,#192,.F.);
#253=ORIENTED_EDGE('',*,*,#195,.F.);
#254=ORIENTED_EDGE('',*,*,#198,.F.);
#255=ORIENTED_EDGE('',*,*,#199,.F.);
#256=ORIENTED_EDGE('',*,*,#200,.F.);
#257=ORIENTED_EDGE('',*,*,#201,.T.);
#258=ORIENTED_EDGE('',*,*,#202,.T.);
#259=ORIENTED_EDGE('',*,*,#203,.F.);
#260=ORIENTED_EDGE('',*,*,#202,.F.);
#261=ORIENTED_EDGE('',*,*,#204,.F.);
#262=ORIENTED_EDGE('',*,*,#205,.F.);
#263=ORIENTED_EDGE('',*,*,#206,.F.);
#264=ORIENTED_EDGE('',*,*,#207,.T.);
#265=ORIENTED_EDGE('',*,*,#204,.T.);
#266=ORIENTED_EDGE('',*,*,#201,.F.);
#267=ORIENTED_EDGE('',*,*,#208,.F.);
#268=ORIENTED_EDGE('',*,*,#205,.T.);
#269=ORIENTED_EDGE('',*,*,#207,.F.);
#270=ORIENTED_EDGE('',*,*,#209,.F.);
#271=ORIENTED_EDGE('',*,*,#210,.T.);
#272=ORIENTED_EDGE('',*,*,#211,.F.);
#273=ORIENTED_EDGE('',*,*,#210,.F.);
#274=ORIENTED_EDGE('',*,*,#212,.F.);
#275=ORIENTED_EDGE('',*,*,#199,.T.);
#276=ORIENTED_EDGE('',*,*,#213,.F.);
#277=ORIENTED_EDGE('',*,*,#214,.F.);
#278=ORIENTED_EDGE('',*,*,#215,.F.);
#279=ORIENTED_EDGE('',*,*,#216,.T.);
#280=ORIENTED_EDGE('',*,*,#217,.T.);
#281=ORIENTED_EDGE('',*,*,#218,.F.);
#282=ORIENTED_EDGE('',*,*,#217,.F.);
#283=ORIENTED_EDGE('',*,*,#219,.F.);
#284=ORIENTED_EDGE('',*,*,#220,.F.);
#285=ORIENTED_EDGE('',*,*,#221,.F.);
#286=ORIENTED_EDGE('',*,*,#222,.T.);
#287=ORIENTED_EDGE('',*,*,#219,.T.);
#288=ORIENTED_EDGE('',*,*,#216,.F.);
#289=ORIENTED_EDGE('',*,*,#223,.F.);
#290=ORIENTED_EDGE('',*,*,#220,.T.);
#291=ORIENTED_EDGE('',*,*,#222,.F.);
#292=ORIENTED_EDGE('',*,*,#224,.F.);
#293=ORIENTED_EDGE('',*,*,#225,.T.);
#294=ORIENTED_EDGE('',*,*,#226,.F.);
#295=ORIENTED_EDGE('',*,*,#225,.F.);
#296=ORIENTED_EDGE('',*,*,#227,.F.);
#297=ORIENTED_EDGE('',*,*,#214,.T.);
#298=ORIENTED_EDGE('',*,*,#228,.T.);
#299=ORIENTED_EDGE('',*,*,#229,.T.);
#300=ORIENTED_EDGE('',*,*,#230,.F.);
#301=ORIENTED_EDGE('',*,*,#231,.F.);
#302=ORIENTED_EDGE('',*,*,#232,.F.);
#303=ORIENTED_EDGE('',*,*,#229,.F.);
#304=ORIENTED_EDGE('',*,*,#186,.T.);
#305=ORIENTED_EDGE('',*,*,#196,.T.);
#306=ORIENTED_EDGE('',*,*,#193,.T.);
#307=ORIENTED_EDGE('',*,*,#190,.T.);
#308=ORIENTED_EDGE('',*,*,#206,.T.);
#309=ORIENTED_EDGE('',*,*,#200,.T.);
#310=ORIENTED_EDGE('',*,*,#212,.T.);
#311=ORIENTED_EDGE('',*,*,#209,.T.);
#312=ORIENTED_EDGE('',*,*,#221,.T.);
#313=ORIENTED_EDGE('',*,*,#215,.T.);
#314=ORIENTED_EDGE('',*,*,#227,.T.);
#315=ORIENTED_EDGE('',*,*,#224,.T.);
#316=ORIENTED_EDGE('',*,*,#232,.T.);
#317=ORIENTED_EDGE('',*,*,#233,.F.);
#318=ORIENTED_EDGE('',*,*,#230,.T.);
#319=ORIENTED_EDGE('',*,*,#228,.F.);
#320=ORIENTED_EDGE('',*,*,#208,.T.);
#321=ORIENTED_EDGE('',*,*,#211,.T.);
#322=ORIENTED_EDGE('',*,*,#198,.T.);
#323=ORIENTED_EDGE('',*,*,#203,.T.);
#324=ORIENTED_EDGE('',*,*,#223,.T.);
#325=ORIENTED_EDGE('',*,*,#226,.T.);
#326=ORIENTED_EDGE('',*,*,#213,.T.);
#327=ORIENTED_EDGE('',*,*,#218,.T.);
#328=ORIENTED_EDGE('',*,*,#233,.T.);
#329=ORIENTED_EDGE('',*,*,#231,.T.);
#330=PLANE('',#387);
#331=PLANE('',#388);
#332=PLANE('',#389);
#333=PLANE('',#390);
#334=PLANE('',#391);
#335=PLANE('',#392);
#336=PLANE('',#394);
#337=PLANE('',#395);
#338=PLANE('',#396);
#339=PLANE('',#398);
#340=PLANE('',#399);
#341=PLANE('',#401);
#342=PLANE('',#402);
#343=PLANE('',#403);
#344=PLANE('',#405);
#345=PLANE('',#406);
#346=PLANE('',#408);
#347=PLANE('',#411);
#348=ADVANCED_FACE('',(#27),#330,.F.);
#349=ADVANCED_FACE('',(#28),#331,.F.);
#350=ADVANCED_FACE('',(#29),#332,.F.);
#351=ADVANCED_FACE('',(#30),#333,.F.);
#352=ADVANCED_FACE('',(#31),#334,.F.);
#353=ADVANCED_FACE('',(#32),#335,.F.);
#354=ADVANCED_FACE('',(#33),#336,.F.);
#355=ADVANCED_FACE('',(#34),#337,.F.);
#356=ADVANCED_FACE('',(#35),#338,.F.);
#357=ADVANCED_FACE('',(#36),#339,.F.);
#358=ADVANCED_FACE('',(#37),#340,.F.);
#359=ADVANCED_FACE('',(#38),#341,.F.);
#360=ADVANCED_FACE('',(#39),#342,.F.);
#361=ADVANCED_FACE('',(#40),#343,.F.);
#362=ADVANCED_FACE('',(#41),#344,.F.);
#363=ADVANCED_FACE('',(#42),#345,.F.);
#364=ADVANCED_FACE('',(#43,#16,#17,#18),#346,.T.);
#365=ADVANCED_FACE('',(#44,#19,#20),#15,.T.);
#366=ADVANCED_FACE('',(#45),#347,.T.);
#367=CLOSED_SHELL('',(#348,#349,#350,#351,#352,#353,#354,#355,#356,#357,
#358,#359,#360,#361,#362,#363,#364,#365,#366));
#368=DERIVED_UNIT_ELEMENT(#370,1.);
#369=DERIVED_UNIT_ELEMENT(#611,3.);
#370=(
MASS_UNIT()
NAMED_UNIT(*)
SI_UNIT($,.GRAM.)
);
#371=DERIVED_UNIT((#368,#369));
#372=MEASURE_REPRESENTATION_ITEM('density measure',
POSITIVE_RATIO_MEASURE(1.),#371);
#373=PROPERTY_DEFINITION_REPRESENTATION(#378,#375);
#374=PROPERTY_DEFINITION_REPRESENTATION(#379,#376);
#375=REPRESENTATION('material name',(#377),#608);
#376=REPRESENTATION('density',(#372),#608);
#377=DESCRIPTIVE_REPRESENTATION_ITEM('Allgemein','Allgemein');
#378=PROPERTY_DEFINITION('material property','material name',#618);
#379=PROPERTY_DEFINITION('material property','density of part',#618);
#380=DATE_TIME_ROLE('creation_date');
#381=APPLIED_DATE_AND_TIME_ASSIGNMENT(#382,#380,(#618));
#382=DATE_AND_TIME(#383,#384);
#383=CALENDAR_DATE(2021,16,8);
#384=LOCAL_TIME(5,22,21.,#385);
#385=COORDINATED_UNIVERSAL_TIME_OFFSET(0,0,.BEHIND.);
#386=AXIS2_PLACEMENT_3D('placement',#506,#412,#413);
#387=AXIS2_PLACEMENT_3D('',#507,#414,#415);
#388=AXIS2_PLACEMENT_3D('',#516,#420,#421);
#389=AXIS2_PLACEMENT_3D('',#522,#425,#426);
#390=AXIS2_PLACEMENT_3D('',#528,#430,#431);
#391=AXIS2_PLACEMENT_3D('',#531,#434,#435);
#392=AXIS2_PLACEMENT_3D('',#532,#436,#437);
#393=AXIS2_PLACEMENT_3D('',#535,#438,#439);
#394=AXIS2_PLACEMENT_3D('',#543,#444,#445);
#395=AXIS2_PLACEMENT_3D('',#549,#449,#450);
#396=AXIS2_PLACEMENT_3D('',#553,#453,#454);
#397=AXIS2_PLACEMENT_3D('',#555,#455,#456);
#398=AXIS2_PLACEMENT_3D('',#559,#459,#460);
#399=AXIS2_PLACEMENT_3D('',#562,#463,#464);
#400=AXIS2_PLACEMENT_3D('',#565,#465,#466);
#401=AXIS2_PLACEMENT_3D('',#573,#471,#472);
#402=AXIS2_PLACEMENT_3D('',#579,#476,#477);
#403=AXIS2_PLACEMENT_3D('',#583,#480,#481);
#404=AXIS2_PLACEMENT_3D('',#585,#482,#483);
#405=AXIS2_PLACEMENT_3D('',#589,#486,#487);
#406=AXIS2_PLACEMENT_3D('',#592,#490,#491);
#407=AXIS2_PLACEMENT_3D('',#595,#492,#493);
#408=AXIS2_PLACEMENT_3D('',#597,#495,#496);
#409=AXIS2_PLACEMENT_3D('',#603,#500,#501);
#410=AXIS2_PLACEMENT_3D('',#604,#502,#503);
#411=AXIS2_PLACEMENT_3D('',#605,#504,#505);
#412=DIRECTION('axis',(0.,0.,1.));
#413=DIRECTION('refdir',(1.,0.,0.));
#414=DIRECTION('center_axis',(-1.30614473485312E-16,0.,-1.));
#415=DIRECTION('ref_axis',(1.,0.,-1.30614473485312E-16));
#416=DIRECTION('',(1.,0.,-1.30614473485312E-16));
#417=DIRECTION('',(0.,-1.,0.));
#418=DIRECTION('',(1.,0.,-1.30614473485312E-16));
#419=DIRECTION('',(0.,-1.,0.));
#420=DIRECTION('center_axis',(-1.,0.,0.));
#421=DIRECTION('ref_axis',(0.,0.,-1.));
#422=DIRECTION('',(0.,0.,-1.));
#423=DIRECTION('',(0.,-1.,0.));
#424=DIRECTION('',(0.,0.,-1.));
#425=DIRECTION('center_axis',(0.,0.,1.));
#426=DIRECTION('ref_axis',(-1.,0.,0.));
#427=DIRECTION('',(-1.,0.,0.));
#428=DIRECTION('',(0.,-1.,0.));
#429=DIRECTION('',(-1.,0.,0.));
#430=DIRECTION('center_axis',(1.,0.,0.));
#431=DIRECTION('ref_axis',(0.,0.,1.));
#432=DIRECTION('',(0.,0.,1.));
#433=DIRECTION('',(0.,0.,1.));
#434=DIRECTION('center_axis',(0.,-1.,0.));
#435=DIRECTION('ref_axis',(0.,0.,-1.));
#436=DIRECTION('center_axis',(0.,0.,-1.));
#437=DIRECTION('ref_axis',(1.,0.,0.));
#438=DIRECTION('center_axis',(0.,0.,-1.));
#439=DIRECTION('ref_axis',(-0.58642987645583,-0.81,0.));
#440=DIRECTION('',(0.,-1.,0.));
#441=DIRECTION('',(1.,0.,0.));
#442=DIRECTION('',(0.,-1.,0.));
#443=DIRECTION('',(1.,0.,0.));
#444=DIRECTION('center_axis',(0.,-1.,0.));
#445=DIRECTION('ref_axis',(0.,0.,-1.));
#446=DIRECTION('',(0.,0.,1.));
#447=DIRECTION('',(0.,0.,-1.));
#448=DIRECTION('',(-1.,0.,0.));
#449=DIRECTION('center_axis',(-1.,0.,0.));
#450=DIRECTION('ref_axis',(0.,0.,-1.));
#451=DIRECTION('',(0.,0.,-1.));
#452=DIRECTION('',(0.,-1.,0.));
#453=DIRECTION('center_axis',(0.,0.,1.));
#454=DIRECTION('ref_axis',(-1.,0.,0.));
#455=DIRECTION('center_axis',(0.,0.,1.));
#456=DIRECTION('ref_axis',(-0.58642987645583,-0.81,0.));
#457=DIRECTION('',(-1.,0.,0.));
#458=DIRECTION('',(0.,-1.,0.));
#459=DIRECTION('center_axis',(1.,0.,0.));
#460=DIRECTION('ref_axis',(0.,0.,1.));
#461=DIRECTION('',(0.,0.,-1.));
#462=DIRECTION('',(0.,0.,1.));
#463=DIRECTION('center_axis',(0.,0.,1.));
#464=DIRECTION('ref_axis',(-1.,0.,0.));
#465=DIRECTION('center_axis',(0.,0.,1.));
#466=DIRECTION('ref_axis',(-0.58642987645583,-0.81,0.));
#467=DIRECTION('',(0.,-1.,0.));
#468=DIRECTION('',(-1.,0.,0.));
#469=DIRECTION('',(0.,-1.,0.));
#470=DIRECTION('',(-1.,0.,0.));
#471=DIRECTION('center_axis',(0.,-1.,0.));
#472=DIRECTION('ref_axis',(0.,0.,-1.));
#473=DIRECTION('',(0.,0.,-1.));
#474=DIRECTION('',(0.,0.,1.));
#475=DIRECTION('',(1.,0.,0.));
#476=DIRECTION('center_axis',(1.,0.,0.));
#477=DIRECTION('ref_axis',(0.,0.,1.));
#478=DIRECTION('',(0.,0.,1.));
#479=DIRECTION('',(0.,-1.,0.));
#480=DIRECTION('center_axis',(0.,0.,-1.));
#481=DIRECTION('ref_axis',(1.,0.,0.));
#482=DIRECTION('center_axis',(0.,0.,-1.));
#483=DIRECTION('ref_axis',(-0.58642987645583,-0.81,0.));
#484=DIRECTION('',(1.,0.,0.));
#485=DIRECTION('',(0.,-1.,0.));
#486=DIRECTION('center_axis',(-1.,0.,0.));
#487=DIRECTION('ref_axis',(0.,0.,-1.));
#488=DIRECTION('',(0.,0.,1.));
#489=DIRECTION('',(0.,0.,-1.));
#490=DIRECTION('center_axis',(0.,0.,1.));
#491=DIRECTION('ref_axis',(1.,0.,0.));
#492=DIRECTION('center_axis',(0.,0.,-1.));
#493=DIRECTION('ref_axis',(-0.58642987645583,-0.81,0.));
#494=DIRECTION('',(1.,0.,0.));
#495=DIRECTION('center_axis',(0.,1.,0.));
#496=DIRECTION('ref_axis',(-1.,0.,0.));
#497=DIRECTION('',(0.,0.,-1.));
#498=DIRECTION('',(-1.,0.,0.));
#499=DIRECTION('',(0.,0.,1.));
#500=DIRECTION('center_axis',(0.,0.,1.));
#501=DIRECTION('ref_axis',(-0.58642987645583,-0.81,0.));
#502=DIRECTION('center_axis',(0.,0.,1.));
#503=DIRECTION('ref_axis',(-0.58642987645583,-0.81,0.));
#504=DIRECTION('center_axis',(0.,0.,1.));
#505=DIRECTION('ref_axis',(1.,0.,0.));
#506=CARTESIAN_POINT('',(0.,0.,0.));
#507=CARTESIAN_POINT('Origin',(-4.25,-40.5,-1.99999999999999));
#508=CARTESIAN_POINT('',(-4.25,-40.5,-1.99999999999999));
#509=CARTESIAN_POINT('',(4.25,-40.5,-2.));
#510=CARTESIAN_POINT('',(12.5357469113957,-40.5,-2.));
#511=CARTESIAN_POINT('',(-4.25,-48.,-1.99999999999999));
#512=CARTESIAN_POINT('',(-4.25,-40.5,-1.99999999999999));
#513=CARTESIAN_POINT('',(4.25,-48.,-2.));
#514=CARTESIAN_POINT('',(4.25,-48.,-2.));
#515=CARTESIAN_POINT('',(4.25,-40.5,-2.));
#516=CARTESIAN_POINT('Origin',(-4.25,-40.5,2.));
#517=CARTESIAN_POINT('',(-4.25,-40.5,2.));
#518=CARTESIAN_POINT('',(-4.25,-40.5,1.));
#519=CARTESIAN_POINT('',(-4.25,-48.,2.));
#520=CARTESIAN_POINT('',(-4.25,-40.5,2.));
#521=CARTESIAN_POINT('',(-4.25,-48.,-1.99999999999999));
#522=CARTESIAN_POINT('Origin',(4.25,-40.5,2.));
#523=CARTESIAN_POINT('',(4.25,-40.5,2.));
#524=CARTESIAN_POINT('',(16.7857469113958,-40.5,2.));
#525=CARTESIAN_POINT('',(4.25,-48.,2.));
#526=CARTESIAN_POINT('',(4.25,-40.5,2.));
#527=CARTESIAN_POINT('',(-4.25,-48.,2.));
#528=CARTESIAN_POINT('Origin',(4.25,-40.5,-2.));
#529=CARTESIAN_POINT('',(4.25,-40.5,-0.999999999999998));
#530=CARTESIAN_POINT('',(4.25,-48.,2.));
#531=CARTESIAN_POINT('Origin',(0.,-48.,3.33066907387547E-15));
#532=CARTESIAN_POINT('Origin',(14.25,-40.5,-2.));
#533=CARTESIAN_POINT('',(21.75,-45.0215226308485,-2.));
#534=CARTESIAN_POINT('',(18.3779759494891,-46.5,-2.));
#535=CARTESIAN_POINT('Origin',(0.,0.,-2.));
#536=CARTESIAN_POINT('',(21.75,-40.5,-2.));
#537=CARTESIAN_POINT('',(21.75,-40.5,-2.));
#538=CARTESIAN_POINT('',(14.25,-40.5,-2.));
#539=CARTESIAN_POINT('',(21.7857469113958,-40.5,-2.));
#540=CARTESIAN_POINT('',(14.25,-46.5,-2.));
#541=CARTESIAN_POINT('',(14.25,-40.5,-2.));
#542=CARTESIAN_POINT('',(21.75,-46.5,-2.));
#543=CARTESIAN_POINT('Origin',(18.,-46.5,0.));
#544=CARTESIAN_POINT('',(18.3779759494891,-46.5,2.));
#545=CARTESIAN_POINT('',(18.3779759494891,-46.5,0.));
#546=CARTESIAN_POINT('',(14.25,-46.5,2.));
#547=CARTESIAN_POINT('',(14.25,-46.5,-2.));
#548=CARTESIAN_POINT('',(14.25,-46.5,2.));
#549=CARTESIAN_POINT('Origin',(14.25,-40.5,2.));
#550=CARTESIAN_POINT('',(14.25,-40.5,2.));
#551=CARTESIAN_POINT('',(14.25,-40.5,1.));
#552=CARTESIAN_POINT('',(14.25,-40.5,2.));
#553=CARTESIAN_POINT('Origin',(21.75,-40.5,2.));
#554=CARTESIAN_POINT('',(21.75,-45.0215226308485,2.));
#555=CARTESIAN_POINT('Origin',(0.,0.,2.));
#556=CARTESIAN_POINT('',(21.75,-40.5,2.));
#557=CARTESIAN_POINT('',(25.5357469113958,-40.5,2.));
#558=CARTESIAN_POINT('',(21.75,-40.5,2.));
#559=CARTESIAN_POINT('Origin',(21.75,-40.5,-2.));
#560=CARTESIAN_POINT('',(21.75,-45.0215226308485,0.));
#561=CARTESIAN_POINT('',(21.75,-40.5,-1.));
#562=CARTESIAN_POINT('Origin',(-14.25,-40.5,2.));
#563=CARTESIAN_POINT('',(-21.75,-45.0215226308485,2.));
#564=CARTESIAN_POINT('',(-18.3779759494891,-46.5,2.));
#565=CARTESIAN_POINT('Origin',(0.,0.,2.));
#566=CARTESIAN_POINT('',(-21.75,-40.5,2.));
#567=CARTESIAN_POINT('',(-21.75,-40.5,2.));
#568=CARTESIAN_POINT('',(-14.25,-40.5,2.));
#569=CARTESIAN_POINT('',(7.53574691139575,-40.5,2.));
#570=CARTESIAN_POINT('',(-14.25,-46.5,2.));
#571=CARTESIAN_POINT('',(-14.25,-40.5,2.));
#572=CARTESIAN_POINT('',(-21.75,-46.5,2.));
#573=CARTESIAN_POINT('Origin',(-18.,-46.5,0.));
#574=CARTESIAN_POINT('',(-18.3779759494891,-46.5,-2.));
#575=CARTESIAN_POINT('',(-18.3779759494891,-46.5,0.));
#576=CARTESIAN_POINT('',(-14.25,-46.5,-2.));
#577=CARTESIAN_POINT('',(-14.25,-46.5,2.));
#578=CARTESIAN_POINT('',(-14.25,-46.5,-2.));
#579=CARTESIAN_POINT('Origin',(-14.25,-40.5,-2.));
#580=CARTESIAN_POINT('',(-14.25,-40.5,-2.));
#581=CARTESIAN_POINT('',(-14.25,-40.5,-1.));
#582=CARTESIAN_POINT('',(-14.25,-40.5,-2.));
#583=CARTESIAN_POINT('Origin',(-21.75,-40.5,-2.));
#584=CARTESIAN_POINT('',(-21.75,-45.0215226308485,-2.));
#585=CARTESIAN_POINT('Origin',(0.,0.,-2.));
#586=CARTESIAN_POINT('',(-21.75,-40.5,-2.));
#587=CARTESIAN_POINT('',(3.78574691139575,-40.5,-2.));
#588=CARTESIAN_POINT('',(-21.75,-40.5,-2.));
#589=CARTESIAN_POINT('Origin',(-21.75,-40.5,2.));
#590=CARTESIAN_POINT('',(-21.75,-45.0215226308485,0.));
#591=CARTESIAN_POINT('',(-21.75,-40.5,1.));
#592=CARTESIAN_POINT('Origin',(0.,-45.25,-4.9));
#593=CARTESIAN_POINT('',(29.3214938227915,-40.5,-4.9));
#594=CARTESIAN_POINT('',(-29.3214938227915,-40.5,-4.9));
#595=CARTESIAN_POINT('Origin',(0.,0.,-4.9));
#596=CARTESIAN_POINT('',(29.3214938227915,-40.5,-4.9));
#597=CARTESIAN_POINT('Origin',(29.3214938227915,-40.5,0.));
#598=CARTESIAN_POINT('',(-29.3214938227915,-40.5,4.9));
#599=CARTESIAN_POINT('',(-29.3214938227915,-40.5,0.));
#600=CARTESIAN_POINT('',(29.3214938227915,-40.5,4.9));
#601=CARTESIAN_POINT('',(29.3214938227915,-40.5,4.9));
#602=CARTESIAN_POINT('',(29.3214938227915,-40.5,0.));
#603=CARTESIAN_POINT('Origin',(0.,0.,0.));
#604=CARTESIAN_POINT('Origin',(0.,0.,4.9));
#605=CARTESIAN_POINT('Origin',(0.,-45.25,4.9));
#606=UNCERTAINTY_MEASURE_WITH_UNIT(LENGTH_MEASURE(0.01),#610,
'DISTANCE_ACCURACY_VALUE',
'Maximum model space distance between geometric entities at asserted c
onnectivities');
#607=UNCERTAINTY_MEASURE_WITH_UNIT(LENGTH_MEASURE(0.01),#610,
'DISTANCE_ACCURACY_VALUE',
'Maximum model space distance between geometric entities at asserted c
onnectivities');
#608=(
GEOMETRIC_REPRESENTATION_CONTEXT(3)
GLOBAL_UNCERTAINTY_ASSIGNED_CONTEXT((#606))
GLOBAL_UNIT_ASSIGNED_CONTEXT((#610,#612,#613))
REPRESENTATION_CONTEXT('','3D')
);
#609=(
GEOMETRIC_REPRESENTATION_CONTEXT(3)
GLOBAL_UNCERTAINTY_ASSIGNED_CONTEXT((#607))
GLOBAL_UNIT_ASSIGNED_CONTEXT((#610,#612,#613))
REPRESENTATION_CONTEXT('','3D')
);
#610=(
LENGTH_UNIT()
NAMED_UNIT(*)
SI_UNIT(.MILLI.,.METRE.)
);
#611=(
LENGTH_UNIT()
NAMED_UNIT(*)
SI_UNIT(.CENTI.,.METRE.)
);
#612=(
NAMED_UNIT(*)
PLANE_ANGLE_UNIT()
SI_UNIT($,.RADIAN.)
);
#613=(
NAMED_UNIT(*)
SI_UNIT($,.STERADIAN.)
SOLID_ANGLE_UNIT()
);
#614=SHAPE_DEFINITION_REPRESENTATION(#615,#616);
#615=PRODUCT_DEFINITION_SHAPE('',$,#618);
#616=SHAPE_REPRESENTATION('',(#386),#608);
#617=PRODUCT_DEFINITION_CONTEXT('part definition',#622,'design');
#618=PRODUCT_DEFINITION('Clamex P10_Oberteil',
'Clamex_P-10_Verbinderhaelfte_ohne_Hebel_s',#619,#617);
#619=PRODUCT_DEFINITION_FORMATION('',$,#624);
#620=PRODUCT_RELATED_PRODUCT_CATEGORY(
'Clamex_P-10_Verbinderhaelfte_ohne_Hebel_s',
'Clamex_P-10_Verbinderhaelfte_ohne_Hebel_s',(#624));
#621=APPLICATION_PROTOCOL_DEFINITION('international standard',
'automotive_design',2009,#622);
#622=APPLICATION_CONTEXT(
'Core Data for Automotive Mechanical Design Process');
#623=PRODUCT_CONTEXT('part definition',#622,'mechanical');
#624=PRODUCT('Clamex P10_Oberteil',
'Clamex_P-10_Verbinderhaelfte_ohne_Hebel_s',$,(#623));
#625=PRESENTATION_STYLE_ASSIGNMENT((#626));
#626=SURFACE_STYLE_USAGE(.BOTH.,#629);
#627=SURFACE_STYLE_RENDERING_WITH_PROPERTIES($,#633,(#628));
#628=SURFACE_STYLE_TRANSPARENT(0.);
#629=SURFACE_SIDE_STYLE('',(#630,#627));
#630=SURFACE_STYLE_FILL_AREA(#631);
#631=FILL_AREA_STYLE('',(#632));
#632=FILL_AREA_STYLE_COLOUR('',#633);
#633=COLOUR_RGB('',0.749019607843137,0.749019607843137,0.749019607843137);
ENDSEC;
END-ISO-10303-21;
