ISO-10303-21;
HEADER;
/* Generated by software containing ST-Developer
 * from STEP Tools, Inc. (www.steptools.com) 
 */

FILE_DESCRIPTION(
/* description */ (''),
/* implementation_level */ '2;1');

FILE_NAME(
/* name */ 
'C:\\Users\\matthiask.LAMELLONET\\Desktop\\\X\D6fftentliche Daten\\CAD
-Clamex-P-Medius-14-10\\CAD Daten mit kleinerer Dateigr\X\F6sse\\Clame
x_P-10_Medius_Verbinderhaelfte_ohne_Hebel_s.stp',
/* time_stamp */ '2022-06-30T10:37:33+02:00',
/* author */ ('matthiask'),
/* organization */ (''),
/* preprocessor_version */ 'ST-DEVELOPER v18',
/* originating_system */ 'Autodesk Inventor 2020',
/* authorisation */ '');

FILE_SCHEMA (('AUTOMOTIVE_DESIGN { 1 0 10303 214 3 1 1 }'));
ENDSEC;

DATA;
#10=MECHANICAL_DESIGN_GEOMETRIC_PRESENTATION_REPRESENTATION('',(#13),#675);
#11=SHAPE_REPRESENTATION_RELATIONSHIP('SRR','None',#682,#12);
#12=ADVANCED_BREP_SHAPE_REPRESENTATION('',(#14),#674);
#13=STYLED_ITEM('',(#691),#14);
#14=MANIFOLD_SOLID_BREP('Volumenk\X\F6rper1',#401);
#15=FACE_BOUND('',#72,.T.);
#16=FACE_BOUND('',#74,.T.);
#17=FACE_BOUND('',#76,.T.);
#18=FACE_BOUND('',#77,.T.);
#19=FACE_BOUND('',#78,.T.);
#20=FACE_BOUND('',#80,.T.);
#21=CYLINDRICAL_SURFACE('',#445,50.);
#22=CYLINDRICAL_SURFACE('',#447,50.);
#23=CYLINDRICAL_SURFACE('',#450,50.);
#24=CIRCLE('',#423,50.);
#25=CIRCLE('',#426,50.);
#26=CIRCLE('',#428,50.);
#27=CIRCLE('',#432,50.);
#28=CIRCLE('',#435,50.);
#29=CIRCLE('',#438,50.);
#30=CIRCLE('',#442,50.);
#31=CIRCLE('',#443,50.);
#32=CIRCLE('',#444,50.);
#33=CIRCLE('',#446,50.);
#34=CIRCLE('',#448,50.);
#35=CIRCLE('',#451,50.);
#36=FACE_OUTER_BOUND('',#56,.T.);
#37=FACE_OUTER_BOUND('',#57,.T.);
#38=FACE_OUTER_BOUND('',#58,.T.);
#39=FACE_OUTER_BOUND('',#59,.T.);
#40=FACE_OUTER_BOUND('',#60,.T.);
#41=FACE_OUTER_BOUND('',#61,.T.);
#42=FACE_OUTER_BOUND('',#62,.T.);
#43=FACE_OUTER_BOUND('',#63,.T.);
#44=FACE_OUTER_BOUND('',#64,.T.);
#45=FACE_OUTER_BOUND('',#65,.T.);
#46=FACE_OUTER_BOUND('',#66,.T.);
#47=FACE_OUTER_BOUND('',#67,.T.);
#48=FACE_OUTER_BOUND('',#68,.T.);
#49=FACE_OUTER_BOUND('',#69,.T.);
#50=FACE_OUTER_BOUND('',#70,.T.);
#51=FACE_OUTER_BOUND('',#71,.T.);
#52=FACE_OUTER_BOUND('',#73,.T.);
#53=FACE_OUTER_BOUND('',#75,.T.);
#54=FACE_OUTER_BOUND('',#79,.T.);
#55=FACE_OUTER_BOUND('',#81,.T.);
#56=EDGE_LOOP('',(#256,#257,#258,#259));
#57=EDGE_LOOP('',(#260,#261,#262,#263));
#58=EDGE_LOOP('',(#264,#265,#266,#267));
#59=EDGE_LOOP('',(#268,#269,#270,#271));
#60=EDGE_LOOP('',(#272,#273,#274,#275,#276));
#61=EDGE_LOOP('',(#277,#278,#279,#280));
#62=EDGE_LOOP('',(#281,#282,#283,#284));
#63=EDGE_LOOP('',(#285,#286,#287,#288,#289));
#64=EDGE_LOOP('',(#290,#291,#292,#293));
#65=EDGE_LOOP('',(#294,#295,#296,#297,#298));
#66=EDGE_LOOP('',(#299,#300,#301,#302));
#67=EDGE_LOOP('',(#303,#304,#305,#306,#307));
#68=EDGE_LOOP('',(#308,#309,#310,#311));
#69=EDGE_LOOP('',(#312,#313,#314,#315));
#70=EDGE_LOOP('',(#316,#317,#318,#319));
#71=EDGE_LOOP('',(#320,#321,#322,#323));
#72=EDGE_LOOP('',(#324,#325,#326,#327));
#73=EDGE_LOOP('',(#328,#329,#330,#331));
#74=EDGE_LOOP('',(#332,#333,#334,#335));
#75=EDGE_LOOP('',(#336,#337,#338,#339));
#76=EDGE_LOOP('',(#340,#341,#342,#343));
#77=EDGE_LOOP('',(#344,#345,#346,#347));
#78=EDGE_LOOP('',(#348,#349,#350,#351));
#79=EDGE_LOOP('',(#352,#353,#354,#355));
#80=EDGE_LOOP('',(#356,#357,#358,#359));
#81=EDGE_LOOP('',(#360,#361,#362,#363));
#82=LINE('',#565,#124);
#83=LINE('',#567,#125);
#84=LINE('',#569,#126);
#85=LINE('',#570,#127);
#86=LINE('',#575,#128);
#87=LINE('',#576,#129);
#88=LINE('',#579,#130);
#89=LINE('',#581,#131);
#90=LINE('',#582,#132);
#91=LINE('',#585,#133);
#92=LINE('',#591,#134);
#93=LINE('',#593,#135);
#94=LINE('',#595,#136);
#95=LINE('',#596,#137);
#96=LINE('',#599,#138);
#97=LINE('',#601,#139);
#98=LINE('',#602,#140);
#99=LINE('',#605,#141);
#100=LINE('',#606,#142);
#101=LINE('',#611,#143);
#102=LINE('',#612,#144);
#103=LINE('',#614,#145);
#104=LINE('',#615,#146);
#105=LINE('',#621,#147);
#106=LINE('',#623,#148);
#107=LINE('',#625,#149);
#108=LINE('',#626,#150);
#109=LINE('',#629,#151);
#110=LINE('',#631,#152);
#111=LINE('',#632,#153);
#112=LINE('',#637,#154);
#113=LINE('',#639,#155);
#114=LINE('',#640,#156);
#115=LINE('',#642,#157);
#116=LINE('',#643,#158);
#117=LINE('',#645,#159);
#118=LINE('',#654,#160);
#119=LINE('',#657,#161);
#120=LINE('',#660,#162);
#121=LINE('',#664,#163);
#122=LINE('',#667,#164);
#123=LINE('',#668,#165);
#124=VECTOR('',#457,10.);
#125=VECTOR('',#458,10.);
#126=VECTOR('',#459,10.);
#127=VECTOR('',#460,10.);
#128=VECTOR('',#465,10.);
#129=VECTOR('',#466,10.);
#130=VECTOR('',#469,10.);
#131=VECTOR('',#470,10.);
#132=VECTOR('',#471,10.);
#133=VECTOR('',#476,10.);
#134=VECTOR('',#481,10.);
#135=VECTOR('',#482,10.);
#136=VECTOR('',#483,10.);
#137=VECTOR('',#484,10.);
#138=VECTOR('',#487,10.);
#139=VECTOR('',#488,10.);
#140=VECTOR('',#489,10.);
#141=VECTOR('',#492,10.);
#142=VECTOR('',#493,10.);
#143=VECTOR('',#498,10.);
#144=VECTOR('',#499,10.);
#145=VECTOR('',#502,10.);
#146=VECTOR('',#503,10.);
#147=VECTOR('',#508,10.);
#148=VECTOR('',#509,10.);
#149=VECTOR('',#510,10.);
#150=VECTOR('',#511,10.);
#151=VECTOR('',#514,10.);
#152=VECTOR('',#515,10.);
#153=VECTOR('',#516,10.);
#154=VECTOR('',#521,10.);
#155=VECTOR('',#522,10.);
#156=VECTOR('',#523,10.);
#157=VECTOR('',#526,10.);
#158=VECTOR('',#527,10.);
#159=VECTOR('',#530,10.);
#160=VECTOR('',#539,10.);
#161=VECTOR('',#542,10.);
#162=VECTOR('',#545,10.);
#163=VECTOR('',#550,10.);
#164=VECTOR('',#553,10.);
#165=VECTOR('',#554,10.);
#166=VERTEX_POINT('',#563);
#167=VERTEX_POINT('',#564);
#168=VERTEX_POINT('',#566);
#169=VERTEX_POINT('',#568);
#170=VERTEX_POINT('',#572);
#171=VERTEX_POINT('',#574);
#172=VERTEX_POINT('',#578);
#173=VERTEX_POINT('',#580);
#174=VERTEX_POINT('',#587);
#175=VERTEX_POINT('',#588);
#176=VERTEX_POINT('',#590);
#177=VERTEX_POINT('',#592);
#178=VERTEX_POINT('',#594);
#179=VERTEX_POINT('',#598);
#180=VERTEX_POINT('',#600);
#181=VERTEX_POINT('',#604);
#182=VERTEX_POINT('',#608);
#183=VERTEX_POINT('',#610);
#184=VERTEX_POINT('',#617);
#185=VERTEX_POINT('',#618);
#186=VERTEX_POINT('',#620);
#187=VERTEX_POINT('',#622);
#188=VERTEX_POINT('',#624);
#189=VERTEX_POINT('',#628);
#190=VERTEX_POINT('',#630);
#191=VERTEX_POINT('',#634);
#192=VERTEX_POINT('',#636);
#193=VERTEX_POINT('',#638);
#194=VERTEX_POINT('',#647);
#195=VERTEX_POINT('',#648);
#196=VERTEX_POINT('',#650);
#197=VERTEX_POINT('',#652);
#198=VERTEX_POINT('',#656);
#199=VERTEX_POINT('',#658);
#200=VERTEX_POINT('',#662);
#201=VERTEX_POINT('',#666);
#202=EDGE_CURVE('',#166,#167,#82,.T.);
#203=EDGE_CURVE('',#168,#166,#83,.T.);
#204=EDGE_CURVE('',#169,#168,#84,.T.);
#205=EDGE_CURVE('',#169,#167,#85,.T.);
#206=EDGE_CURVE('',#167,#170,#24,.T.);
#207=EDGE_CURVE('',#171,#169,#86,.T.);
#208=EDGE_CURVE('',#171,#170,#87,.T.);
#209=EDGE_CURVE('',#170,#172,#88,.T.);
#210=EDGE_CURVE('',#173,#171,#89,.T.);
#211=EDGE_CURVE('',#173,#172,#90,.T.);
#212=EDGE_CURVE('',#172,#166,#25,.T.);
#213=EDGE_CURVE('',#168,#173,#91,.T.);
#214=EDGE_CURVE('',#174,#175,#26,.T.);
#215=EDGE_CURVE('',#176,#174,#92,.T.);
#216=EDGE_CURVE('',#177,#176,#93,.T.);
#217=EDGE_CURVE('',#177,#178,#94,.T.);
#218=EDGE_CURVE('',#178,#175,#95,.T.);
#219=EDGE_CURVE('',#175,#179,#96,.T.);
#220=EDGE_CURVE('',#180,#178,#97,.T.);
#221=EDGE_CURVE('',#179,#180,#98,.T.);
#222=EDGE_CURVE('',#181,#177,#99,.T.);
#223=EDGE_CURVE('',#181,#180,#100,.T.);
#224=EDGE_CURVE('',#179,#182,#27,.T.);
#225=EDGE_CURVE('',#183,#181,#101,.T.);
#226=EDGE_CURVE('',#183,#182,#102,.T.);
#227=EDGE_CURVE('',#182,#174,#103,.T.);
#228=EDGE_CURVE('',#176,#183,#104,.T.);
#229=EDGE_CURVE('',#184,#185,#28,.T.);
#230=EDGE_CURVE('',#186,#184,#105,.T.);
#231=EDGE_CURVE('',#187,#186,#106,.T.);
#232=EDGE_CURVE('',#187,#188,#107,.T.);
#233=EDGE_CURVE('',#188,#185,#108,.T.);
#234=EDGE_CURVE('',#185,#189,#109,.T.);
#235=EDGE_CURVE('',#190,#188,#110,.T.);
#236=EDGE_CURVE('',#189,#190,#111,.T.);
#237=EDGE_CURVE('',#189,#191,#29,.T.);
#238=EDGE_CURVE('',#192,#190,#112,.T.);
#239=EDGE_CURVE('',#193,#192,#113,.T.);
#240=EDGE_CURVE('',#193,#191,#114,.T.);
#241=EDGE_CURVE('',#191,#184,#115,.T.);
#242=EDGE_CURVE('',#186,#193,#116,.T.);
#243=EDGE_CURVE('',#192,#187,#117,.T.);
#244=EDGE_CURVE('',#194,#195,#30,.T.);
#245=EDGE_CURVE('',#195,#196,#31,.T.);
#246=EDGE_CURVE('',#196,#197,#32,.T.);
#247=EDGE_CURVE('',#197,#194,#118,.T.);
#248=EDGE_CURVE('',#198,#195,#119,.T.);
#249=EDGE_CURVE('',#199,#198,#33,.T.);
#250=EDGE_CURVE('',#196,#199,#120,.T.);
#251=EDGE_CURVE('',#200,#199,#34,.T.);
#252=EDGE_CURVE('',#197,#200,#121,.T.);
#253=EDGE_CURVE('',#201,#200,#122,.T.);
#254=EDGE_CURVE('',#194,#201,#123,.T.);
#255=EDGE_CURVE('',#198,#201,#35,.T.);
#256=ORIENTED_EDGE('',*,*,#202,.F.);
#257=ORIENTED_EDGE('',*,*,#203,.F.);
#258=ORIENTED_EDGE('',*,*,#204,.F.);
#259=ORIENTED_EDGE('',*,*,#205,.T.);
#260=ORIENTED_EDGE('',*,*,#206,.F.);
#261=ORIENTED_EDGE('',*,*,#205,.F.);
#262=ORIENTED_EDGE('',*,*,#207,.F.);
#263=ORIENTED_EDGE('',*,*,#208,.T.);
#264=ORIENTED_EDGE('',*,*,#209,.F.);
#265=ORIENTED_EDGE('',*,*,#208,.F.);
#266=ORIENTED_EDGE('',*,*,#210,.F.);
#267=ORIENTED_EDGE('',*,*,#211,.T.);
#268=ORIENTED_EDGE('',*,*,#212,.F.);
#269=ORIENTED_EDGE('',*,*,#211,.F.);
#270=ORIENTED_EDGE('',*,*,#213,.F.);
#271=ORIENTED_EDGE('',*,*,#203,.T.);
#272=ORIENTED_EDGE('',*,*,#214,.F.);
#273=ORIENTED_EDGE('',*,*,#215,.F.);
#274=ORIENTED_EDGE('',*,*,#216,.F.);
#275=ORIENTED_EDGE('',*,*,#217,.T.);
#276=ORIENTED_EDGE('',*,*,#218,.T.);
#277=ORIENTED_EDGE('',*,*,#219,.F.);
#278=ORIENTED_EDGE('',*,*,#218,.F.);
#279=ORIENTED_EDGE('',*,*,#220,.F.);
#280=ORIENTED_EDGE('',*,*,#221,.F.);
#281=ORIENTED_EDGE('',*,*,#222,.F.);
#282=ORIENTED_EDGE('',*,*,#223,.T.);
#283=ORIENTED_EDGE('',*,*,#220,.T.);
#284=ORIENTED_EDGE('',*,*,#217,.F.);
#285=ORIENTED_EDGE('',*,*,#224,.F.);
#286=ORIENTED_EDGE('',*,*,#221,.T.);
#287=ORIENTED_EDGE('',*,*,#223,.F.);
#288=ORIENTED_EDGE('',*,*,#225,.F.);
#289=ORIENTED_EDGE('',*,*,#226,.T.);
#290=ORIENTED_EDGE('',*,*,#227,.F.);
#291=ORIENTED_EDGE('',*,*,#226,.F.);
#292=ORIENTED_EDGE('',*,*,#228,.F.);
#293=ORIENTED_EDGE('',*,*,#215,.T.);
#294=ORIENTED_EDGE('',*,*,#229,.F.);
#295=ORIENTED_EDGE('',*,*,#230,.F.);
#296=ORIENTED_EDGE('',*,*,#231,.F.);
#297=ORIENTED_EDGE('',*,*,#232,.T.);
#298=ORIENTED_EDGE('',*,*,#233,.T.);
#299=ORIENTED_EDGE('',*,*,#234,.F.);
#300=ORIENTED_EDGE('',*,*,#233,.F.);
#301=ORIENTED_EDGE('',*,*,#235,.F.);
#302=ORIENTED_EDGE('',*,*,#236,.F.);
#303=ORIENTED_EDGE('',*,*,#237,.F.);
#304=ORIENTED_EDGE('',*,*,#236,.T.);
#305=ORIENTED_EDGE('',*,*,#238,.F.);
#306=ORIENTED_EDGE('',*,*,#239,.F.);
#307=ORIENTED_EDGE('',*,*,#240,.T.);
#308=ORIENTED_EDGE('',*,*,#241,.F.);
#309=ORIENTED_EDGE('',*,*,#240,.F.);
#310=ORIENTED_EDGE('',*,*,#242,.F.);
#311=ORIENTED_EDGE('',*,*,#230,.T.);
#312=ORIENTED_EDGE('',*,*,#243,.F.);
#313=ORIENTED_EDGE('',*,*,#238,.T.);
#314=ORIENTED_EDGE('',*,*,#235,.T.);
#315=ORIENTED_EDGE('',*,*,#232,.F.);
#316=ORIENTED_EDGE('',*,*,#244,.T.);
#317=ORIENTED_EDGE('',*,*,#245,.T.);
#318=ORIENTED_EDGE('',*,*,#246,.T.);
#319=ORIENTED_EDGE('',*,*,#247,.T.);
#320=ORIENTED_EDGE('',*,*,#248,.F.);
#321=ORIENTED_EDGE('',*,*,#249,.F.);
#322=ORIENTED_EDGE('',*,*,#250,.F.);
#323=ORIENTED_EDGE('',*,*,#245,.F.);
#324=ORIENTED_EDGE('',*,*,#209,.T.);
#325=ORIENTED_EDGE('',*,*,#212,.T.);
#326=ORIENTED_EDGE('',*,*,#202,.T.);
#327=ORIENTED_EDGE('',*,*,#206,.T.);
#328=ORIENTED_EDGE('',*,*,#250,.T.);
#329=ORIENTED_EDGE('',*,*,#251,.F.);
#330=ORIENTED_EDGE('',*,*,#252,.F.);
#331=ORIENTED_EDGE('',*,*,#246,.F.);
#332=ORIENTED_EDGE('',*,*,#237,.T.);
#333=ORIENTED_EDGE('',*,*,#241,.T.);
#334=ORIENTED_EDGE('',*,*,#229,.T.);
#335=ORIENTED_EDGE('',*,*,#234,.T.);
#336=ORIENTED_EDGE('',*,*,#252,.T.);
#337=ORIENTED_EDGE('',*,*,#253,.F.);
#338=ORIENTED_EDGE('',*,*,#254,.F.);
#339=ORIENTED_EDGE('',*,*,#247,.F.);
#340=ORIENTED_EDGE('',*,*,#210,.T.);
#341=ORIENTED_EDGE('',*,*,#207,.T.);
#342=ORIENTED_EDGE('',*,*,#204,.T.);
#343=ORIENTED_EDGE('',*,*,#213,.T.);
#344=ORIENTED_EDGE('',*,*,#222,.T.);
#345=ORIENTED_EDGE('',*,*,#216,.T.);
#346=ORIENTED_EDGE('',*,*,#228,.T.);
#347=ORIENTED_EDGE('',*,*,#225,.T.);
#348=ORIENTED_EDGE('',*,*,#239,.T.);
#349=ORIENTED_EDGE('',*,*,#243,.T.);
#350=ORIENTED_EDGE('',*,*,#231,.T.);
#351=ORIENTED_EDGE('',*,*,#242,.T.);
#352=ORIENTED_EDGE('',*,*,#254,.T.);
#353=ORIENTED_EDGE('',*,*,#255,.F.);
#354=ORIENTED_EDGE('',*,*,#248,.T.);
#355=ORIENTED_EDGE('',*,*,#244,.F.);
#356=ORIENTED_EDGE('',*,*,#224,.T.);
#357=ORIENTED_EDGE('',*,*,#227,.T.);
#358=ORIENTED_EDGE('',*,*,#214,.T.);
#359=ORIENTED_EDGE('',*,*,#219,.T.);
#360=ORIENTED_EDGE('',*,*,#255,.T.);
#361=ORIENTED_EDGE('',*,*,#253,.T.);
#362=ORIENTED_EDGE('',*,*,#251,.T.);
#363=ORIENTED_EDGE('',*,*,#249,.T.);
#364=PLANE('',#421);
#365=PLANE('',#422);
#366=PLANE('',#424);
#367=PLANE('',#425);
#368=PLANE('',#427);
#369=PLANE('',#429);
#370=PLANE('',#430);
#371=PLANE('',#431);
#372=PLANE('',#433);
#373=PLANE('',#434);
#374=PLANE('',#436);
#375=PLANE('',#437);
#376=PLANE('',#439);
#377=PLANE('',#440);
#378=PLANE('',#441);
#379=PLANE('',#449);
#380=PLANE('',#452);
#381=ADVANCED_FACE('',(#36),#364,.F.);
#382=ADVANCED_FACE('',(#37),#365,.F.);
#383=ADVANCED_FACE('',(#38),#366,.F.);
#384=ADVANCED_FACE('',(#39),#367,.F.);
#385=ADVANCED_FACE('',(#40),#368,.F.);
#386=ADVANCED_FACE('',(#41),#369,.F.);
#387=ADVANCED_FACE('',(#42),#370,.F.);
#388=ADVANCED_FACE('',(#43),#371,.F.);
#389=ADVANCED_FACE('',(#44),#372,.F.);
#390=ADVANCED_FACE('',(#45),#373,.F.);
#391=ADVANCED_FACE('',(#46),#374,.F.);
#392=ADVANCED_FACE('',(#47),#375,.F.);
#393=ADVANCED_FACE('',(#48),#376,.F.);
#394=ADVANCED_FACE('',(#49),#377,.F.);
#395=ADVANCED_FACE('',(#50),#378,.F.);
#396=ADVANCED_FACE('',(#51,#15),#21,.F.);
#397=ADVANCED_FACE('',(#52,#16),#22,.T.);
#398=ADVANCED_FACE('',(#53,#17,#18,#19),#379,.T.);
#399=ADVANCED_FACE('',(#54,#20),#23,.T.);
#400=ADVANCED_FACE('',(#55),#380,.T.);
#401=CLOSED_SHELL('',(#381,#382,#383,#384,#385,#386,#387,#388,#389,#390,
#391,#392,#393,#394,#395,#396,#397,#398,#399,#400));
#402=DERIVED_UNIT_ELEMENT(#404,1.);
#403=DERIVED_UNIT_ELEMENT(#677,3.);
#404=(
MASS_UNIT()
NAMED_UNIT(*)
SI_UNIT($,.GRAM.)
);
#405=DERIVED_UNIT((#402,#403));
#406=MEASURE_REPRESENTATION_ITEM('density measure',
POSITIVE_RATIO_MEASURE(1.),#405);
#407=PROPERTY_DEFINITION_REPRESENTATION(#412,#409);
#408=PROPERTY_DEFINITION_REPRESENTATION(#413,#410);
#409=REPRESENTATION('material name',(#411),#674);
#410=REPRESENTATION('density',(#406),#674);
#411=DESCRIPTIVE_REPRESENTATION_ITEM('Allgemein','Allgemein');
#412=PROPERTY_DEFINITION('material property','material name',#684);
#413=PROPERTY_DEFINITION('material property','density of part',#684);
#414=DATE_TIME_ROLE('creation_date');
#415=APPLIED_DATE_AND_TIME_ASSIGNMENT(#416,#414,(#684));
#416=DATE_AND_TIME(#417,#418);
#417=CALENDAR_DATE(2021,16,8);
#418=LOCAL_TIME(5,22,21.,#419);
#419=COORDINATED_UNIVERSAL_TIME_OFFSET(0,0,.BEHIND.);
#420=AXIS2_PLACEMENT_3D('placement',#561,#453,#454);
#421=AXIS2_PLACEMENT_3D('',#562,#455,#456);
#422=AXIS2_PLACEMENT_3D('',#571,#461,#462);
#423=AXIS2_PLACEMENT_3D('',#573,#463,#464);
#424=AXIS2_PLACEMENT_3D('',#577,#467,#468);
#425=AXIS2_PLACEMENT_3D('',#583,#472,#473);
#426=AXIS2_PLACEMENT_3D('',#584,#474,#475);
#427=AXIS2_PLACEMENT_3D('',#586,#477,#478);
#428=AXIS2_PLACEMENT_3D('',#589,#479,#480);
#429=AXIS2_PLACEMENT_3D('',#597,#485,#486);
#430=AXIS2_PLACEMENT_3D('',#603,#490,#491);
#431=AXIS2_PLACEMENT_3D('',#607,#494,#495);
#432=AXIS2_PLACEMENT_3D('',#609,#496,#497);
#433=AXIS2_PLACEMENT_3D('',#613,#500,#501);
#434=AXIS2_PLACEMENT_3D('',#616,#504,#505);
#435=AXIS2_PLACEMENT_3D('',#619,#506,#507);
#436=AXIS2_PLACEMENT_3D('',#627,#512,#513);
#437=AXIS2_PLACEMENT_3D('',#633,#517,#518);
#438=AXIS2_PLACEMENT_3D('',#635,#519,#520);
#439=AXIS2_PLACEMENT_3D('',#641,#524,#525);
#440=AXIS2_PLACEMENT_3D('',#644,#528,#529);
#441=AXIS2_PLACEMENT_3D('',#646,#531,#532);
#442=AXIS2_PLACEMENT_3D('',#649,#533,#534);
#443=AXIS2_PLACEMENT_3D('',#651,#535,#536);
#444=AXIS2_PLACEMENT_3D('',#653,#537,#538);
#445=AXIS2_PLACEMENT_3D('',#655,#540,#541);
#446=AXIS2_PLACEMENT_3D('',#659,#543,#544);
#447=AXIS2_PLACEMENT_3D('',#661,#546,#547);
#448=AXIS2_PLACEMENT_3D('',#663,#548,#549);
#449=AXIS2_PLACEMENT_3D('',#665,#551,#552);
#450=AXIS2_PLACEMENT_3D('',#669,#555,#556);
#451=AXIS2_PLACEMENT_3D('',#670,#557,#558);
#452=AXIS2_PLACEMENT_3D('',#671,#559,#560);
#453=DIRECTION('axis',(0.,0.,1.));
#454=DIRECTION('refdir',(1.,0.,0.));
#455=DIRECTION('center_axis',(1.,0.,0.));
#456=DIRECTION('ref_axis',(0.,0.,1.));
#457=DIRECTION('',(0.,0.,-1.));
#458=DIRECTION('',(0.,-1.,0.));
#459=DIRECTION('',(0.,0.,1.));
#460=DIRECTION('',(0.,-1.,0.));
#461=DIRECTION('center_axis',(1.30614473485313E-16,0.,-1.));
#462=DIRECTION('ref_axis',(1.,0.,1.30614473485313E-16));
#463=DIRECTION('center_axis',(-1.30614473485313E-16,0.,1.));
#464=DIRECTION('ref_axis',(-0.279999999999999,-0.96,0.));
#465=DIRECTION('',(1.,0.,1.30614473485313E-16));
#466=DIRECTION('',(0.,-1.,0.));
#467=DIRECTION('center_axis',(-1.,0.,0.));
#468=DIRECTION('ref_axis',(0.,0.,-1.));
#469=DIRECTION('',(0.,0.,1.));
#470=DIRECTION('',(0.,0.,-1.));
#471=DIRECTION('',(0.,-1.,0.));
#472=DIRECTION('center_axis',(1.30614473485313E-16,0.,1.));
#473=DIRECTION('ref_axis',(-1.,0.,1.30614473485313E-16));
#474=DIRECTION('center_axis',(-1.30614473485313E-16,0.,-1.));
#475=DIRECTION('ref_axis',(-0.279999999999999,-0.96,0.));
#476=DIRECTION('',(-1.,0.,1.30614473485313E-16));
#477=DIRECTION('center_axis',(0.,0.,-1.));
#478=DIRECTION('ref_axis',(1.,0.,0.));
#479=DIRECTION('center_axis',(0.,0.,-1.));
#480=DIRECTION('ref_axis',(0.279999999999999,-0.96,0.));
#481=DIRECTION('',(0.,-1.,0.));
#482=DIRECTION('',(1.,0.,0.));
#483=DIRECTION('',(0.,-1.,0.));
#484=DIRECTION('',(1.,0.,0.));
#485=DIRECTION('center_axis',(0.,-1.,0.));
#486=DIRECTION('ref_axis',(0.,0.,-1.));
#487=DIRECTION('',(0.,0.,1.));
#488=DIRECTION('',(0.,0.,-1.));
#489=DIRECTION('',(-1.,0.,0.));
#490=DIRECTION('center_axis',(-1.,0.,0.));
#491=DIRECTION('ref_axis',(0.,0.,-1.));
#492=DIRECTION('',(0.,0.,-1.));
#493=DIRECTION('',(0.,-1.,0.));
#494=DIRECTION('center_axis',(0.,0.,1.));
#495=DIRECTION('ref_axis',(-1.,0.,0.));
#496=DIRECTION('center_axis',(0.,0.,1.));
#497=DIRECTION('ref_axis',(0.279999999999999,-0.96,0.));
#498=DIRECTION('',(-1.,0.,0.));
#499=DIRECTION('',(0.,-1.,0.));
#500=DIRECTION('center_axis',(1.,0.,0.));
#501=DIRECTION('ref_axis',(0.,0.,1.));
#502=DIRECTION('',(0.,0.,-1.));
#503=DIRECTION('',(0.,0.,1.));
#504=DIRECTION('center_axis',(0.,0.,1.));
#505=DIRECTION('ref_axis',(-1.,0.,0.));
#506=DIRECTION('center_axis',(0.,0.,1.));
#507=DIRECTION('ref_axis',(-0.58642987645583,-0.81,0.));
#508=DIRECTION('',(0.,-1.,0.));
#509=DIRECTION('',(-1.,0.,0.));
#510=DIRECTION('',(0.,-1.,0.));
#511=DIRECTION('',(-1.,0.,0.));
#512=DIRECTION('center_axis',(0.,-1.,0.));
#513=DIRECTION('ref_axis',(0.,0.,-1.));
#514=DIRECTION('',(0.,0.,-1.));
#515=DIRECTION('',(0.,0.,1.));
#516=DIRECTION('',(1.,0.,0.));
#517=DIRECTION('center_axis',(0.,0.,-1.));
#518=DIRECTION('ref_axis',(1.,0.,0.));
#519=DIRECTION('center_axis',(0.,0.,-1.));
#520=DIRECTION('ref_axis',(-0.58642987645583,-0.81,0.));
#521=DIRECTION('',(0.,-1.,0.));
#522=DIRECTION('',(1.,0.,0.));
#523=DIRECTION('',(0.,-1.,0.));
#524=DIRECTION('center_axis',(-1.,0.,0.));
#525=DIRECTION('ref_axis',(0.,0.,-1.));
#526=DIRECTION('',(0.,0.,1.));
#527=DIRECTION('',(0.,0.,-1.));
#528=DIRECTION('center_axis',(1.,0.,0.));
#529=DIRECTION('ref_axis',(0.,0.,1.));
#530=DIRECTION('',(0.,0.,1.));
#531=DIRECTION('center_axis',(0.,0.,1.));
#532=DIRECTION('ref_axis',(1.,0.,0.));
#533=DIRECTION('center_axis',(0.,0.,-1.));
#534=DIRECTION('ref_axis',(0.279999999999999,-0.96,0.));
#535=DIRECTION('center_axis',(0.,0.,1.));
#536=DIRECTION('ref_axis',(-0.279999999999999,-0.96,0.));
#537=DIRECTION('center_axis',(0.,0.,-1.));
#538=DIRECTION('ref_axis',(-0.58642987645583,-0.81,0.));
#539=DIRECTION('',(1.,0.,0.));
#540=DIRECTION('center_axis',(0.,0.,1.));
#541=DIRECTION('ref_axis',(-0.279999999999999,-0.96,0.));
#542=DIRECTION('',(0.,0.,-1.));
#543=DIRECTION('center_axis',(0.,0.,-1.));
#544=DIRECTION('ref_axis',(-0.279999999999999,-0.96,0.));
#545=DIRECTION('',(0.,0.,1.));
#546=DIRECTION('center_axis',(0.,0.,1.));
#547=DIRECTION('ref_axis',(-0.58642987645583,-0.81,0.));
#548=DIRECTION('center_axis',(0.,0.,1.));
#549=DIRECTION('ref_axis',(-0.58642987645583,-0.81,0.));
#550=DIRECTION('',(0.,0.,1.));
#551=DIRECTION('center_axis',(0.,1.,0.));
#552=DIRECTION('ref_axis',(-1.,0.,0.));
#553=DIRECTION('',(-1.,0.,0.));
#554=DIRECTION('',(0.,0.,1.));
#555=DIRECTION('center_axis',(0.,0.,1.));
#556=DIRECTION('ref_axis',(0.279999999999999,-0.96,0.));
#557=DIRECTION('center_axis',(0.,0.,1.));
#558=DIRECTION('ref_axis',(0.279999999999999,-0.96,0.));
#559=DIRECTION('center_axis',(0.,0.,1.));
#560=DIRECTION('ref_axis',(1.,0.,0.));
#561=CARTESIAN_POINT('',(0.,0.,0.));
#562=CARTESIAN_POINT('Origin',(4.25,-40.5,-2.));
#563=CARTESIAN_POINT('',(4.25,-46.1809524378476,2.));
#564=CARTESIAN_POINT('',(4.25,-46.1809524378476,-2.));
#565=CARTESIAN_POINT('',(4.25,-46.1809524378476,0.));
#566=CARTESIAN_POINT('',(4.25,-40.5,2.));
#567=CARTESIAN_POINT('',(4.25,-40.5,2.));
#568=CARTESIAN_POINT('',(4.25,-40.5,-2.));
#569=CARTESIAN_POINT('',(4.25,-40.5,-1.));
#570=CARTESIAN_POINT('',(4.25,-40.5,-2.));
#571=CARTESIAN_POINT('Origin',(-4.25,-40.5,-2.));
#572=CARTESIAN_POINT('',(-4.25,-46.1809524378476,-2.));
#573=CARTESIAN_POINT('Origin',(0.,-96.,-2.));
#574=CARTESIAN_POINT('',(-4.25,-40.5,-2.));
#575=CARTESIAN_POINT('',(12.5357469113958,-40.5,-2.));
#576=CARTESIAN_POINT('',(-4.25,-40.5,-2.));
#577=CARTESIAN_POINT('Origin',(-4.25,-40.5,2.));
#578=CARTESIAN_POINT('',(-4.25,-46.1809524378476,2.));
#579=CARTESIAN_POINT('',(-4.25,-46.1809524378476,0.));
#580=CARTESIAN_POINT('',(-4.25,-40.5,2.));
#581=CARTESIAN_POINT('',(-4.25,-40.5,1.));
#582=CARTESIAN_POINT('',(-4.25,-40.5,2.));
#583=CARTESIAN_POINT('Origin',(4.25,-40.5,2.));
#584=CARTESIAN_POINT('Origin',(0.,-96.,2.));
#585=CARTESIAN_POINT('',(16.7857469113957,-40.5,2.));
#586=CARTESIAN_POINT('Origin',(14.25,-40.5,-2.));
#587=CARTESIAN_POINT('',(21.75,-45.0215226308485,-2.));
#588=CARTESIAN_POINT('',(18.3779759494891,-46.5,-2.));
#589=CARTESIAN_POINT('Origin',(0.,0.,-2.));
#590=CARTESIAN_POINT('',(21.75,-40.5,-2.));
#591=CARTESIAN_POINT('',(21.75,-40.5,-2.));
#592=CARTESIAN_POINT('',(14.25,-40.5,-2.));
#593=CARTESIAN_POINT('',(21.7857469113958,-40.5,-2.));
#594=CARTESIAN_POINT('',(14.25,-46.5,-2.));
#595=CARTESIAN_POINT('',(14.25,-40.5,-2.));
#596=CARTESIAN_POINT('',(21.75,-46.5,-2.));
#597=CARTESIAN_POINT('Origin',(18.,-46.5,0.));
#598=CARTESIAN_POINT('',(18.3779759494891,-46.5,2.));
#599=CARTESIAN_POINT('',(18.3779759494891,-46.5,0.));
#600=CARTESIAN_POINT('',(14.25,-46.5,2.));
#601=CARTESIAN_POINT('',(14.25,-46.5,-2.));
#602=CARTESIAN_POINT('',(14.25,-46.5,2.));
#603=CARTESIAN_POINT('Origin',(14.25,-40.5,2.));
#604=CARTESIAN_POINT('',(14.25,-40.5,2.));
#605=CARTESIAN_POINT('',(14.25,-40.5,1.));
#606=CARTESIAN_POINT('',(14.25,-40.5,2.));
#607=CARTESIAN_POINT('Origin',(21.75,-40.5,2.));
#608=CARTESIAN_POINT('',(21.75,-45.0215226308485,2.));
#609=CARTESIAN_POINT('Origin',(0.,0.,2.));
#610=CARTESIAN_POINT('',(21.75,-40.5,2.));
#611=CARTESIAN_POINT('',(25.5357469113958,-40.5,2.));
#612=CARTESIAN_POINT('',(21.75,-40.5,2.));
#613=CARTESIAN_POINT('Origin',(21.75,-40.5,-2.));
#614=CARTESIAN_POINT('',(21.75,-45.0215226308485,0.));
#615=CARTESIAN_POINT('',(21.75,-40.5,-1.));
#616=CARTESIAN_POINT('Origin',(-14.25,-40.5,2.));
#617=CARTESIAN_POINT('',(-21.75,-45.0215226308485,2.));
#618=CARTESIAN_POINT('',(-18.3779759494891,-46.5,2.));
#619=CARTESIAN_POINT('Origin',(0.,0.,2.));
#620=CARTESIAN_POINT('',(-21.75,-40.5,2.));
#621=CARTESIAN_POINT('',(-21.75,-40.5,2.));
#622=CARTESIAN_POINT('',(-14.25,-40.5,2.));
#623=CARTESIAN_POINT('',(7.53574691139575,-40.5,2.));
#624=CARTESIAN_POINT('',(-14.25,-46.5,2.));
#625=CARTESIAN_POINT('',(-14.25,-40.5,2.));
#626=CARTESIAN_POINT('',(-21.75,-46.5,2.));
#627=CARTESIAN_POINT('Origin',(-18.,-46.5,0.));
#628=CARTESIAN_POINT('',(-18.3779759494891,-46.5,-2.));
#629=CARTESIAN_POINT('',(-18.3779759494891,-46.5,0.));
#630=CARTESIAN_POINT('',(-14.25,-46.5,-2.));
#631=CARTESIAN_POINT('',(-14.25,-46.5,2.));
#632=CARTESIAN_POINT('',(-14.25,-46.5,-2.));
#633=CARTESIAN_POINT('Origin',(-21.75,-40.5,-2.));
#634=CARTESIAN_POINT('',(-21.75,-45.0215226308485,-2.));
#635=CARTESIAN_POINT('Origin',(0.,0.,-2.));
#636=CARTESIAN_POINT('',(-14.25,-40.5,-2.));
#637=CARTESIAN_POINT('',(-14.25,-40.5,-2.));
#638=CARTESIAN_POINT('',(-21.75,-40.5,-2.));
#639=CARTESIAN_POINT('',(3.78574691139575,-40.5,-2.));
#640=CARTESIAN_POINT('',(-21.75,-40.5,-2.));
#641=CARTESIAN_POINT('Origin',(-21.75,-40.5,2.));
#642=CARTESIAN_POINT('',(-21.75,-45.0215226308485,0.));
#643=CARTESIAN_POINT('',(-21.75,-40.5,1.));
#644=CARTESIAN_POINT('Origin',(-14.25,-40.5,-2.));
#645=CARTESIAN_POINT('',(-14.25,-40.5,-1.));
#646=CARTESIAN_POINT('Origin',(0.,-44.25,-4.9));
#647=CARTESIAN_POINT('',(29.3214938227915,-40.5,-4.9));
#648=CARTESIAN_POINT('',(14.,-48.,-4.9));
#649=CARTESIAN_POINT('Origin',(0.,0.,-4.9));
#650=CARTESIAN_POINT('',(-14.,-48.,-4.9));
#651=CARTESIAN_POINT('Origin',(0.,-96.,-4.9));
#652=CARTESIAN_POINT('',(-29.3214938227915,-40.5,-4.9));
#653=CARTESIAN_POINT('Origin',(0.,0.,-4.9));
#654=CARTESIAN_POINT('',(29.3214938227915,-40.5,-4.9));
#655=CARTESIAN_POINT('Origin',(0.,-96.,0.));
#656=CARTESIAN_POINT('',(14.,-48.,4.9));
#657=CARTESIAN_POINT('',(14.,-48.,0.));
#658=CARTESIAN_POINT('',(-14.,-48.,4.9));
#659=CARTESIAN_POINT('Origin',(0.,-96.,4.9));
#660=CARTESIAN_POINT('',(-14.,-48.,0.));
#661=CARTESIAN_POINT('Origin',(0.,0.,0.));
#662=CARTESIAN_POINT('',(-29.3214938227915,-40.5,4.9));
#663=CARTESIAN_POINT('Origin',(0.,0.,4.9));
#664=CARTESIAN_POINT('',(-29.3214938227915,-40.5,0.));
#665=CARTESIAN_POINT('Origin',(29.3214938227915,-40.5,0.));
#666=CARTESIAN_POINT('',(29.3214938227915,-40.5,4.9));
#667=CARTESIAN_POINT('',(29.3214938227915,-40.5,4.9));
#668=CARTESIAN_POINT('',(29.3214938227915,-40.5,0.));
#669=CARTESIAN_POINT('Origin',(0.,0.,0.));
#670=CARTESIAN_POINT('Origin',(0.,0.,4.9));
#671=CARTESIAN_POINT('Origin',(0.,-44.25,4.9));
#672=UNCERTAINTY_MEASURE_WITH_UNIT(LENGTH_MEASURE(0.01),#676,
'DISTANCE_ACCURACY_VALUE',
'Maximum model space distance between geometric entities at asserted c
onnectivities');
#673=UNCERTAINTY_MEASURE_WITH_UNIT(LENGTH_MEASURE(0.01),#676,
'DISTANCE_ACCURACY_VALUE',
'Maximum model space distance between geometric entities at asserted c
onnectivities');
#674=(
GEOMETRIC_REPRESENTATION_CONTEXT(3)
GLOBAL_UNCERTAINTY_ASSIGNED_CONTEXT((#672))
GLOBAL_UNIT_ASSIGNED_CONTEXT((#676,#678,#679))
REPRESENTATION_CONTEXT('','3D')
);
#675=(
GEOMETRIC_REPRESENTATION_CONTEXT(3)
GLOBAL_UNCERTAINTY_ASSIGNED_CONTEXT((#673))
GLOBAL_UNIT_ASSIGNED_CONTEXT((#676,#678,#679))
REPRESENTATION_CONTEXT('','3D')
);
#676=(
LENGTH_UNIT()
NAMED_UNIT(*)
SI_UNIT(.MILLI.,.METRE.)
);
#677=(
LENGTH_UNIT()
NAMED_UNIT(*)
SI_UNIT(.CENTI.,.METRE.)
);
#678=(
NAMED_UNIT(*)
PLANE_ANGLE_UNIT()
SI_UNIT($,.RADIAN.)
);
#679=(
NAMED_UNIT(*)
SI_UNIT($,.STERADIAN.)
SOLID_ANGLE_UNIT()
);
#680=SHAPE_DEFINITION_REPRESENTATION(#681,#682);
#681=PRODUCT_DEFINITION_SHAPE('',$,#684);
#682=SHAPE_REPRESENTATION('',(#420),#674);
#683=PRODUCT_DEFINITION_CONTEXT('part definition',#688,'design');
#684=PRODUCT_DEFINITION('Medius',
'Clamex_P-10_Medius_Verbinderhaelfte_ohne_Hebel_s',#685,#683);
#685=PRODUCT_DEFINITION_FORMATION('',$,#690);
#686=PRODUCT_RELATED_PRODUCT_CATEGORY(
'Clamex_P-10_Medius_Verbinderhaelfte_ohne_Hebel_s',
'Clamex_P-10_Medius_Verbinderhaelfte_ohne_Hebel_s',(#690));
#687=APPLICATION_PROTOCOL_DEFINITION('international standard',
'automotive_design',2009,#688);
#688=APPLICATION_CONTEXT(
'Core Data for Automotive Mechanical Design Process');
#689=PRODUCT_CONTEXT('part definition',#688,'mechanical');
#690=PRODUCT('Medius',
'Clamex_P-10_Medius_Verbinderhaelfte_ohne_Hebel_s',$,(#689));
#691=PRESENTATION_STYLE_ASSIGNMENT((#692));
#692=SURFACE_STYLE_USAGE(.BOTH.,#695);
#693=SURFACE_STYLE_RENDERING_WITH_PROPERTIES($,#699,(#694));
#694=SURFACE_STYLE_TRANSPARENT(0.);
#695=SURFACE_SIDE_STYLE('',(#696,#693));
#696=SURFACE_STYLE_FILL_AREA(#697);
#697=FILL_AREA_STYLE('',(#698));
#698=FILL_AREA_STYLE_COLOUR('',#699);
#699=COLOUR_RGB('',0.749019607843137,0.749019607843137,0.749019607843137);
ENDSEC;
END-ISO-10303-21;
