ISO-10303-21;
HEADER;
/* Generated by software containing ST-Developer
 * from STEP Tools, Inc. (www.steptools.com) 
 */

FILE_DESCRIPTION(
/* description */ (''),
/* implementation_level */ '2;1');

FILE_NAME(
/* name */ 
'C:\\Users\\matthiask.LAMELLONET\\Desktop\\\X\D6fftentliche Daten\\CAD
-Profilnut P-14\\P-14.stp',
/* time_stamp */ '2022-07-04T11:01:40+02:00',
/* author */ ('matthiask'),
/* organization */ (''),
/* preprocessor_version */ 'ST-DEVELOPER v18',
/* originating_system */ 'Autodesk Inventor 2020',
/* authorisation */ '');

FILE_SCHEMA (('AUTOMOTIVE_DESIGN { 1 0 10303 214 3 1 1 }'));
ENDSEC;

DATA;
#10=MECHANICAL_DESIGN_GEOMETRIC_PRESENTATION_REPRESENTATION('',(#13),#329);
#11=SHAPE_REPRESENTATION_RELATIONSHIP('SRR','None',#336,#12);
#12=ADVANCED_BREP_SHAPE_REPRESENTATION('',(#14),#328);
#13=STYLED_ITEM('',(#345),#14);
#14=MANIFOLD_SOLID_BREP('Volumenk\X\F6rper1',#179);
#15=CYLINDRICAL_SURFACE('',#205,47.3);
#16=CYLINDRICAL_SURFACE('',#212,50.);
#17=CYLINDRICAL_SURFACE('',#213,47.3);
#18=CONICAL_SURFACE('',#203,49.2297717079693,0.610865238198015);
#19=CONICAL_SURFACE('',#210,49.2297717079693,0.610865238198015);
#20=CIRCLE('',#201,47.3);
#21=CIRCLE('',#202,48.4595434159386);
#22=CIRCLE('',#204,50.);
#23=CIRCLE('',#206,47.3);
#24=CIRCLE('',#207,47.3);
#25=CIRCLE('',#209,48.4595434159386);
#26=CIRCLE('',#211,50.);
#27=CIRCLE('',#214,47.3);
#28=FACE_OUTER_BOUND('',#38,.T.);
#29=FACE_OUTER_BOUND('',#39,.T.);
#30=FACE_OUTER_BOUND('',#40,.T.);
#31=FACE_OUTER_BOUND('',#41,.T.);
#32=FACE_OUTER_BOUND('',#42,.T.);
#33=FACE_OUTER_BOUND('',#43,.T.);
#34=FACE_OUTER_BOUND('',#44,.T.);
#35=FACE_OUTER_BOUND('',#45,.T.);
#36=FACE_OUTER_BOUND('',#46,.T.);
#37=FACE_OUTER_BOUND('',#47,.T.);
#38=EDGE_LOOP('',(#116,#117,#118,#119,#120,#121,#122,#123,#124,#125,#126,
#127,#128,#129,#130,#131));
#39=EDGE_LOOP('',(#132,#133,#134,#135));
#40=EDGE_LOOP('',(#136,#137,#138,#139));
#41=EDGE_LOOP('',(#140,#141,#142,#143));
#42=EDGE_LOOP('',(#144,#145,#146,#147));
#43=EDGE_LOOP('',(#148,#149,#150,#151));
#44=EDGE_LOOP('',(#152,#153,#154,#155));
#45=EDGE_LOOP('',(#156,#157,#158,#159));
#46=EDGE_LOOP('',(#160,#161));
#47=EDGE_LOOP('',(#162,#163));
#48=(
BOUNDED_CURVE()
B_SPLINE_CURVE(2,(#277,#278,#279),.UNSPECIFIED.,.F.,.F.)
B_SPLINE_CURVE_WITH_KNOTS((3,3),(0.,0.3153374269984),.UNSPECIFIED.)
CURVE()
GEOMETRIC_REPRESENTATION_ITEM()
RATIONAL_B_SPLINE_CURVE((1.,1.00026332966513,1.))
REPRESENTATION_ITEM('')
);
#49=(
BOUNDED_CURVE()
B_SPLINE_CURVE(2,(#283,#284,#285),.UNSPECIFIED.,.F.,.F.)
B_SPLINE_CURVE_WITH_KNOTS((3,3),(0.,0.315337426998399),.UNSPECIFIED.)
CURVE()
GEOMETRIC_REPRESENTATION_ITEM()
RATIONAL_B_SPLINE_CURVE((1.,1.000263329663,1.))
REPRESENTATION_ITEM('')
);
#50=(
BOUNDED_CURVE()
B_SPLINE_CURVE(2,(#297,#298,#299),.UNSPECIFIED.,.F.,.F.)
B_SPLINE_CURVE_WITH_KNOTS((3,3),(0.,0.315337426998399),.UNSPECIFIED.)
CURVE()
GEOMETRIC_REPRESENTATION_ITEM()
RATIONAL_B_SPLINE_CURVE((1.,1.00026332966501,1.))
REPRESENTATION_ITEM('')
);
#51=(
BOUNDED_CURVE()
B_SPLINE_CURVE(2,(#303,#304,#305),.UNSPECIFIED.,.F.,.F.)
B_SPLINE_CURVE_WITH_KNOTS((3,3),(0.,0.3153374269984),.UNSPECIFIED.)
CURVE()
GEOMETRIC_REPRESENTATION_ITEM()
RATIONAL_B_SPLINE_CURVE((1.,1.00026332966349,1.))
REPRESENTATION_ITEM('')
);
#52=LINE('',#271,#64);
#53=LINE('',#273,#65);
#54=LINE('',#275,#66);
#55=LINE('',#281,#67);
#56=LINE('',#287,#68);
#57=LINE('',#289,#69);
#58=LINE('',#291,#70);
#59=LINE('',#293,#71);
#60=LINE('',#295,#72);
#61=LINE('',#301,#73);
#62=LINE('',#307,#74);
#63=LINE('',#308,#75);
#64=VECTOR('',#221,10.);
#65=VECTOR('',#222,10.);
#66=VECTOR('',#223,10.);
#67=VECTOR('',#224,10.);
#68=VECTOR('',#225,10.);
#69=VECTOR('',#226,10.);
#70=VECTOR('',#227,10.);
#71=VECTOR('',#228,10.);
#72=VECTOR('',#229,10.);
#73=VECTOR('',#230,10.);
#74=VECTOR('',#231,10.);
#75=VECTOR('',#232,10.);
#76=VERTEX_POINT('',#269);
#77=VERTEX_POINT('',#270);
#78=VERTEX_POINT('',#272);
#79=VERTEX_POINT('',#274);
#80=VERTEX_POINT('',#276);
#81=VERTEX_POINT('',#280);
#82=VERTEX_POINT('',#282);
#83=VERTEX_POINT('',#286);
#84=VERTEX_POINT('',#288);
#85=VERTEX_POINT('',#290);
#86=VERTEX_POINT('',#292);
#87=VERTEX_POINT('',#294);
#88=VERTEX_POINT('',#296);
#89=VERTEX_POINT('',#300);
#90=VERTEX_POINT('',#302);
#91=VERTEX_POINT('',#306);
#92=EDGE_CURVE('',#76,#77,#52,.T.);
#93=EDGE_CURVE('',#78,#76,#53,.T.);
#94=EDGE_CURVE('',#79,#78,#54,.T.);
#95=EDGE_CURVE('',#80,#79,#48,.T.);
#96=EDGE_CURVE('',#81,#80,#55,.T.);
#97=EDGE_CURVE('',#82,#81,#49,.T.);
#98=EDGE_CURVE('',#83,#82,#56,.T.);
#99=EDGE_CURVE('',#84,#83,#57,.T.);
#100=EDGE_CURVE('',#85,#84,#58,.T.);
#101=EDGE_CURVE('',#86,#85,#59,.T.);
#102=EDGE_CURVE('',#87,#86,#60,.T.);
#103=EDGE_CURVE('',#88,#87,#50,.T.);
#104=EDGE_CURVE('',#89,#88,#61,.T.);
#105=EDGE_CURVE('',#90,#89,#51,.T.);
#106=EDGE_CURVE('',#91,#90,#62,.T.);
#107=EDGE_CURVE('',#77,#91,#63,.T.);
#108=EDGE_CURVE('',#83,#86,#20,.T.);
#109=EDGE_CURVE('',#82,#87,#21,.T.);
#110=EDGE_CURVE('',#81,#88,#22,.T.);
#111=EDGE_CURVE('',#78,#91,#23,.T.);
#112=EDGE_CURVE('',#76,#77,#24,.T.);
#113=EDGE_CURVE('',#79,#90,#25,.T.);
#114=EDGE_CURVE('',#80,#89,#26,.T.);
#115=EDGE_CURVE('',#84,#85,#27,.T.);
#116=ORIENTED_EDGE('',*,*,#92,.F.);
#117=ORIENTED_EDGE('',*,*,#93,.F.);
#118=ORIENTED_EDGE('',*,*,#94,.F.);
#119=ORIENTED_EDGE('',*,*,#95,.F.);
#120=ORIENTED_EDGE('',*,*,#96,.F.);
#121=ORIENTED_EDGE('',*,*,#97,.F.);
#122=ORIENTED_EDGE('',*,*,#98,.F.);
#123=ORIENTED_EDGE('',*,*,#99,.F.);
#124=ORIENTED_EDGE('',*,*,#100,.F.);
#125=ORIENTED_EDGE('',*,*,#101,.F.);
#126=ORIENTED_EDGE('',*,*,#102,.F.);
#127=ORIENTED_EDGE('',*,*,#103,.F.);
#128=ORIENTED_EDGE('',*,*,#104,.F.);
#129=ORIENTED_EDGE('',*,*,#105,.F.);
#130=ORIENTED_EDGE('',*,*,#106,.F.);
#131=ORIENTED_EDGE('',*,*,#107,.F.);
#132=ORIENTED_EDGE('',*,*,#102,.T.);
#133=ORIENTED_EDGE('',*,*,#108,.F.);
#134=ORIENTED_EDGE('',*,*,#98,.T.);
#135=ORIENTED_EDGE('',*,*,#109,.T.);
#136=ORIENTED_EDGE('',*,*,#103,.T.);
#137=ORIENTED_EDGE('',*,*,#109,.F.);
#138=ORIENTED_EDGE('',*,*,#97,.T.);
#139=ORIENTED_EDGE('',*,*,#110,.T.);
#140=ORIENTED_EDGE('',*,*,#107,.T.);
#141=ORIENTED_EDGE('',*,*,#111,.F.);
#142=ORIENTED_EDGE('',*,*,#93,.T.);
#143=ORIENTED_EDGE('',*,*,#112,.T.);
#144=ORIENTED_EDGE('',*,*,#106,.T.);
#145=ORIENTED_EDGE('',*,*,#113,.F.);
#146=ORIENTED_EDGE('',*,*,#94,.T.);
#147=ORIENTED_EDGE('',*,*,#111,.T.);
#148=ORIENTED_EDGE('',*,*,#105,.T.);
#149=ORIENTED_EDGE('',*,*,#114,.F.);
#150=ORIENTED_EDGE('',*,*,#95,.T.);
#151=ORIENTED_EDGE('',*,*,#113,.T.);
#152=ORIENTED_EDGE('',*,*,#104,.T.);
#153=ORIENTED_EDGE('',*,*,#110,.F.);
#154=ORIENTED_EDGE('',*,*,#96,.T.);
#155=ORIENTED_EDGE('',*,*,#114,.T.);
#156=ORIENTED_EDGE('',*,*,#99,.T.);
#157=ORIENTED_EDGE('',*,*,#108,.T.);
#158=ORIENTED_EDGE('',*,*,#101,.T.);
#159=ORIENTED_EDGE('',*,*,#115,.F.);
#160=ORIENTED_EDGE('',*,*,#100,.T.);
#161=ORIENTED_EDGE('',*,*,#115,.T.);
#162=ORIENTED_EDGE('',*,*,#92,.T.);
#163=ORIENTED_EDGE('',*,*,#112,.F.);
#164=PLANE('',#199);
#165=PLANE('',#200);
#166=PLANE('',#208);
#167=PLANE('',#215);
#168=PLANE('',#216);
#169=ADVANCED_FACE('',(#28),#164,.F.);
#170=ADVANCED_FACE('',(#29),#165,.T.);
#171=ADVANCED_FACE('',(#30),#18,.T.);
#172=ADVANCED_FACE('',(#31),#15,.F.);
#173=ADVANCED_FACE('',(#32),#166,.T.);
#174=ADVANCED_FACE('',(#33),#19,.T.);
#175=ADVANCED_FACE('',(#34),#16,.T.);
#176=ADVANCED_FACE('',(#35),#17,.F.);
#177=ADVANCED_FACE('',(#36),#167,.T.);
#178=ADVANCED_FACE('',(#37),#168,.T.);
#179=CLOSED_SHELL('',(#169,#170,#171,#172,#173,#174,#175,#176,#177,#178));
#180=DERIVED_UNIT_ELEMENT(#182,1.);
#181=DERIVED_UNIT_ELEMENT(#331,3.);
#182=(
MASS_UNIT()
NAMED_UNIT(*)
SI_UNIT($,.GRAM.)
);
#183=DERIVED_UNIT((#180,#181));
#184=MEASURE_REPRESENTATION_ITEM('density measure',
POSITIVE_RATIO_MEASURE(1.),#183);
#185=PROPERTY_DEFINITION_REPRESENTATION(#190,#187);
#186=PROPERTY_DEFINITION_REPRESENTATION(#191,#188);
#187=REPRESENTATION('material name',(#189),#328);
#188=REPRESENTATION('density',(#184),#328);
#189=DESCRIPTIVE_REPRESENTATION_ITEM('Allgemein','Allgemein');
#190=PROPERTY_DEFINITION('material property','material name',#338);
#191=PROPERTY_DEFINITION('material property','density of part',#338);
#192=DATE_TIME_ROLE('creation_date');
#193=APPLIED_DATE_AND_TIME_ASSIGNMENT(#194,#192,(#338));
#194=DATE_AND_TIME(#195,#196);
#195=CALENDAR_DATE(2017,14,3);
#196=LOCAL_TIME(4,57,34.,#197);
#197=COORDINATED_UNIVERSAL_TIME_OFFSET(0,0,.BEHIND.);
#198=AXIS2_PLACEMENT_3D('placement',#267,#217,#218);
#199=AXIS2_PLACEMENT_3D('',#268,#219,#220);
#200=AXIS2_PLACEMENT_3D('',#309,#233,#234);
#201=AXIS2_PLACEMENT_3D('',#310,#235,#236);
#202=AXIS2_PLACEMENT_3D('',#311,#237,#238);
#203=AXIS2_PLACEMENT_3D('',#312,#239,#240);
#204=AXIS2_PLACEMENT_3D('',#313,#241,#242);
#205=AXIS2_PLACEMENT_3D('',#314,#243,#244);
#206=AXIS2_PLACEMENT_3D('',#315,#245,#246);
#207=AXIS2_PLACEMENT_3D('',#316,#247,#248);
#208=AXIS2_PLACEMENT_3D('',#317,#249,#250);
#209=AXIS2_PLACEMENT_3D('',#318,#251,#252);
#210=AXIS2_PLACEMENT_3D('',#319,#253,#254);
#211=AXIS2_PLACEMENT_3D('',#320,#255,#256);
#212=AXIS2_PLACEMENT_3D('',#321,#257,#258);
#213=AXIS2_PLACEMENT_3D('',#322,#259,#260);
#214=AXIS2_PLACEMENT_3D('',#323,#261,#262);
#215=AXIS2_PLACEMENT_3D('',#324,#263,#264);
#216=AXIS2_PLACEMENT_3D('',#325,#265,#266);
#217=DIRECTION('axis',(0.,0.,1.));
#218=DIRECTION('refdir',(1.,0.,0.));
#219=DIRECTION('center_axis',(0.,5.83981797695046E-17,-1.));
#220=DIRECTION('ref_axis',(0.,1.,5.83981797695046E-17));
#221=DIRECTION('',(0.,-1.,-5.83981797695046E-17));
#222=DIRECTION('',(-1.,0.,0.));
#223=DIRECTION('',(0.,-1.,-5.83981797695046E-17));
#224=DIRECTION('',(1.,0.,0.));
#225=DIRECTION('',(0.,1.,5.83981797695046E-17));
#226=DIRECTION('',(-1.,0.,0.));
#227=DIRECTION('',(0.,1.,5.83981797695046E-17));
#228=DIRECTION('',(1.,0.,0.));
#229=DIRECTION('',(0.,1.,5.83981797695046E-17));
#230=DIRECTION('',(-1.,0.,0.));
#231=DIRECTION('',(0.,-1.,-5.83981797695046E-17));
#232=DIRECTION('',(1.,0.,0.));
#233=DIRECTION('center_axis',(-1.,0.,0.));
#234=DIRECTION('ref_axis',(0.,-0.866025403784439,0.5));
#235=DIRECTION('center_axis',(-1.,0.,0.));
#236=DIRECTION('ref_axis',(0.,0.866025403784439,-0.5));
#237=DIRECTION('center_axis',(-1.,0.,0.));
#238=DIRECTION('ref_axis',(0.,0.866025403784439,-0.5));
#239=DIRECTION('center_axis',(1.,0.,0.));
#240=DIRECTION('ref_axis',(0.,0.866025403784438,-0.5));
#241=DIRECTION('center_axis',(-1.,0.,0.));
#242=DIRECTION('ref_axis',(0.,0.866025403784439,-0.5));
#243=DIRECTION('center_axis',(-1.,0.,0.));
#244=DIRECTION('ref_axis',(0.,0.866025403784439,-0.5));
#245=DIRECTION('center_axis',(-1.,0.,0.));
#246=DIRECTION('ref_axis',(0.,0.866025403784439,-0.5));
#247=DIRECTION('center_axis',(-1.,0.,0.));
#248=DIRECTION('ref_axis',(0.,0.866025403784439,-0.5));
#249=DIRECTION('center_axis',(1.,0.,0.));
#250=DIRECTION('ref_axis',(0.,0.866025403784439,-0.5));
#251=DIRECTION('center_axis',(-1.,0.,0.));
#252=DIRECTION('ref_axis',(0.,0.866025403784439,-0.5));
#253=DIRECTION('center_axis',(-1.,0.,0.));
#254=DIRECTION('ref_axis',(0.,0.866025403784438,-0.5));
#255=DIRECTION('center_axis',(-1.,0.,0.));
#256=DIRECTION('ref_axis',(0.,0.866025403784439,-0.5));
#257=DIRECTION('center_axis',(-1.,0.,0.));
#258=DIRECTION('ref_axis',(0.,0.866025403784439,-0.5));
#259=DIRECTION('center_axis',(-1.,0.,0.));
#260=DIRECTION('ref_axis',(0.,0.866025403784439,-0.5));
#261=DIRECTION('center_axis',(-1.,0.,0.));
#262=DIRECTION('ref_axis',(0.,0.866025403784439,-0.5));
#263=DIRECTION('center_axis',(-1.,0.,0.));
#264=DIRECTION('ref_axis',(0.,-0.866025403784439,0.5));
#265=DIRECTION('center_axis',(1.,0.,0.));
#266=DIRECTION('ref_axis',(0.,0.866025403784439,-0.5));
#267=CARTESIAN_POINT('',(0.,0.,0.));
#268=CARTESIAN_POINT('Origin',(0.,-54.4858030484052,0.));
#269=CARTESIAN_POINT('',(3.5,30.6804498011356,1.79168242289598E-15));
#270=CARTESIAN_POINT('',(3.5,-30.6804498011356,-1.79168242289598E-15));
#271=CARTESIAN_POINT('',(3.5,-9.20792249039169,2.22044604925031E-15));
#272=CARTESIAN_POINT('',(4.9,30.6804498011356,1.79168242289598E-15));
#273=CARTESIAN_POINT('',(4.2,30.6804498011356,1.79168242289598E-15));
#274=CARTESIAN_POINT('',(4.9,32.4395953748076,1.89441332234801E-15));
#275=CARTESIAN_POINT('',(4.9,-6.51035221095219,3.33066907387547E-15));
#276=CARTESIAN_POINT('',(2.7,34.6987031457949,2.02634110407681E-15));
#277=CARTESIAN_POINT('Ctrl Pts',(2.7,34.6987031457949,5.62050406216485E-15));
#278=CARTESIAN_POINT('Ctrl Pts',(3.83701342755001,33.5514767355297,5.30722179321044E-15));
#279=CARTESIAN_POINT('Ctrl Pts',(4.9,32.4395953748076,4.9960036108132E-15));
#280=CARTESIAN_POINT('',(-2.7,34.6987031457949,2.02634110407681E-15));
#281=CARTESIAN_POINT('',(-1.66533453693773E-15,34.6987031457949,2.02634110407681E-15));
#282=CARTESIAN_POINT('',(-4.9,32.4395953748076,1.89441332234801E-15));
#283=CARTESIAN_POINT('Ctrl Pts',(-4.9,32.4395953748077,7.56339435525888E-15));
#284=CARTESIAN_POINT('Ctrl Pts',(-3.83701342755027,33.5514767355295,6.79908398255048E-15));
#285=CARTESIAN_POINT('Ctrl Pts',(-2.7,34.6987031457949,6.03683769639929E-15));
#286=CARTESIAN_POINT('',(-4.9,30.6804498011356,1.79168242289598E-15));
#287=CARTESIAN_POINT('',(-4.9,-6.51035221095219,3.33066907387547E-15));
#288=CARTESIAN_POINT('',(-3.5,30.6804498011356,1.79168242289598E-15));
#289=CARTESIAN_POINT('',(-4.2,30.6804498011356,1.79168242289598E-15));
#290=CARTESIAN_POINT('',(-3.5,-30.6804498011356,-1.79168242289598E-15));
#291=CARTESIAN_POINT('',(-3.5,-9.20792249039169,2.22044604925031E-15));
#292=CARTESIAN_POINT('',(-4.9,-30.6804498011356,-1.79168242289598E-15));
#293=CARTESIAN_POINT('',(-4.2,-30.6804498011356,-1.79168242289598E-15));
#294=CARTESIAN_POINT('',(-4.9,-32.4395953748076,-1.89441332234801E-15));
#295=CARTESIAN_POINT('',(-4.9,-6.51035221095219,3.33066907387547E-15));
#296=CARTESIAN_POINT('',(-2.7,-34.6987031457949,-2.02634110407681E-15));
#297=CARTESIAN_POINT('Ctrl Pts',(-2.7,-34.6987031457949,2.0122792321331E-15));
#298=CARTESIAN_POINT('Ctrl Pts',(-3.83701342754949,-33.5514767355302,2.81128407436099E-15));
#299=CARTESIAN_POINT('Ctrl Pts',(-4.9,-32.4395953748077,3.60822483003176E-15));
#300=CARTESIAN_POINT('',(2.7,-34.6987031457949,-2.02634110407681E-15));
#301=CARTESIAN_POINT('',(-1.66533453693773E-15,-34.6987031457949,-2.02634110407681E-15));
#302=CARTESIAN_POINT('',(4.9,-32.4395953748076,-1.89441332234801E-15));
#303=CARTESIAN_POINT('Ctrl Pts',(4.9,-32.4395953748076,1.04083408558608E-15));
#304=CARTESIAN_POINT('Ctrl Pts',(3.83701342754897,-33.5514767355308,1.3194218850209E-15));
#305=CARTESIAN_POINT('Ctrl Pts',(2.7,-34.6987031457949,1.59594559789866E-15));
#306=CARTESIAN_POINT('',(4.9,-30.6804498011356,-1.79168242289598E-15));
#307=CARTESIAN_POINT('',(4.9,-6.51035221095219,3.33066907387547E-15));
#308=CARTESIAN_POINT('',(4.2,-30.6804498011356,-1.79168242289598E-15));
#309=CARTESIAN_POINT('Origin',(-4.9,41.4650986265009,12.0601141460153));
#310=CARTESIAN_POINT('Origin',(-4.9,0.,36.));
#311=CARTESIAN_POINT('Origin',(-4.9,0.,36.));
#312=CARTESIAN_POINT('Origin',(-3.8,0.,36.));
#313=CARTESIAN_POINT('Origin',(-2.7,0.,36.));
#314=CARTESIAN_POINT('Origin',(4.2,0.,36.));
#315=CARTESIAN_POINT('Origin',(4.9,0.,36.));
#316=CARTESIAN_POINT('Origin',(3.5,0.,36.));
#317=CARTESIAN_POINT('Origin',(4.9,41.4650986265009,12.0601141460153));
#318=CARTESIAN_POINT('Origin',(4.9,0.,36.));
#319=CARTESIAN_POINT('Origin',(3.8,0.,36.));
#320=CARTESIAN_POINT('Origin',(2.7,0.,36.));
#321=CARTESIAN_POINT('Origin',(-1.66533453693773E-15,0.,36.));
#322=CARTESIAN_POINT('Origin',(-4.2,0.,36.));
#323=CARTESIAN_POINT('Origin',(-3.5,0.,36.));
#324=CARTESIAN_POINT('Origin',(-3.5,36.0699580676219,15.175));
#325=CARTESIAN_POINT('Origin',(3.5,36.0699580676219,15.175));
#326=UNCERTAINTY_MEASURE_WITH_UNIT(LENGTH_MEASURE(0.01),#330,
'DISTANCE_ACCURACY_VALUE',
'Maximum model space distance between geometric entities at asserted c
onnectivities');
#327=UNCERTAINTY_MEASURE_WITH_UNIT(LENGTH_MEASURE(0.01),#330,
'DISTANCE_ACCURACY_VALUE',
'Maximum model space distance between geometric entities at asserted c
onnectivities');
#328=(
GEOMETRIC_REPRESENTATION_CONTEXT(3)
GLOBAL_UNCERTAINTY_ASSIGNED_CONTEXT((#326))
GLOBAL_UNIT_ASSIGNED_CONTEXT((#330,#332,#333))
REPRESENTATION_CONTEXT('','3D')
);
#329=(
GEOMETRIC_REPRESENTATION_CONTEXT(3)
GLOBAL_UNCERTAINTY_ASSIGNED_CONTEXT((#327))
GLOBAL_UNIT_ASSIGNED_CONTEXT((#330,#332,#333))
REPRESENTATION_CONTEXT('','3D')
);
#330=(
LENGTH_UNIT()
NAMED_UNIT(*)
SI_UNIT(.MILLI.,.METRE.)
);
#331=(
LENGTH_UNIT()
NAMED_UNIT(*)
SI_UNIT(.CENTI.,.METRE.)
);
#332=(
NAMED_UNIT(*)
PLANE_ANGLE_UNIT()
SI_UNIT($,.RADIAN.)
);
#333=(
NAMED_UNIT(*)
SI_UNIT($,.STERADIAN.)
SOLID_ANGLE_UNIT()
);
#334=SHAPE_DEFINITION_REPRESENTATION(#335,#336);
#335=PRODUCT_DEFINITION_SHAPE('',$,#338);
#336=SHAPE_REPRESENTATION('',(#198),#328);
#337=PRODUCT_DEFINITION_CONTEXT('part definition',#342,'design');
#338=PRODUCT_DEFINITION('P-14 Profilnut ohne Zugangsbohrung',
'P-14 Profilnut ohne Zugangsbohrung',#339,#337);
#339=PRODUCT_DEFINITION_FORMATION('',$,#344);
#340=PRODUCT_RELATED_PRODUCT_CATEGORY(
'P-14 Profilnut ohne Zugangsbohrung',
'P-14 Profilnut ohne Zugangsbohrung',(#344));
#341=APPLICATION_PROTOCOL_DEFINITION('international standard',
'automotive_design',2009,#342);
#342=APPLICATION_CONTEXT(
'Core Data for Automotive Mechanical Design Process');
#343=PRODUCT_CONTEXT('part definition',#342,'mechanical');
#344=PRODUCT('P-14 Profilnut ohne Zugangsbohrung',
'P-14 Profilnut ohne Zugangsbohrung',$,(#343));
#345=PRESENTATION_STYLE_ASSIGNMENT((#346));
#346=SURFACE_STYLE_USAGE(.BOTH.,#349);
#347=SURFACE_STYLE_RENDERING_WITH_PROPERTIES($,#353,(#348));
#348=SURFACE_STYLE_TRANSPARENT(0.339999973773956);
#349=SURFACE_SIDE_STYLE('',(#350,#347));
#350=SURFACE_STYLE_FILL_AREA(#351);
#351=FILL_AREA_STYLE('',(#352));
#352=FILL_AREA_STYLE_COLOUR('',#353);
#353=COLOUR_RGB('',0.0627450980392157,0.670588235294118,0.290196078431373);
ENDSEC;
END-ISO-10303-21;
