ISO-10303-21;
HEADER;
/* Generated by software containing ST-Developer
 * from STEP Tools, Inc. (www.steptools.com) 
 */

FILE_DESCRIPTION(
/* description */ (''),
/* implementation_level */ '2;1');

FILE_NAME(
/* name */ 'C:\\Users\\matthiask.LAMELLONET\\Desktop\\Nut_3mm_D76x7mm.
stp',
/* time_stamp */ '2021-07-08T15:45:47+02:00',
/* author */ ('matthiask'),
/* organization */ (''),
/* preprocessor_version */ 'ST-DEVELOPER v18',
/* originating_system */ 'Autodesk Inventor 2020',
/* authorisation */ '');

FILE_SCHEMA (('AUTOMOTIVE_DESIGN { 1 0 10303 214 3 1 1 }'));
ENDSEC;

DATA;
#10=MECHANICAL_DESIGN_GEOMETRIC_PRESENTATION_REPRESENTATION('',(#58,#59,
#60,#61,#62),#129);
#11=SHAPE_REPRESENTATION_RELATIONSHIP('SRR','None',#136,#12);
#12=ADVANCED_BREP_SHAPE_REPRESENTATION('',(#13),#128);
#13=MANIFOLD_SOLID_BREP('Volumenk\X\F6rper1',#67);
#14=CYLINDRICAL_SURFACE('',#90,38.);
#15=FACE_OUTER_BOUND('',#19,.T.);
#16=FACE_OUTER_BOUND('',#20,.T.);
#17=FACE_OUTER_BOUND('',#21,.T.);
#18=FACE_OUTER_BOUND('',#22,.T.);
#19=EDGE_LOOP('',(#43,#44));
#20=EDGE_LOOP('',(#45,#46,#47,#48));
#21=EDGE_LOOP('',(#49,#50,#51,#52));
#22=EDGE_LOOP('',(#53,#54));
#23=LINE('',#116,#27);
#24=LINE('',#119,#28);
#25=LINE('',#121,#29);
#26=LINE('',#122,#30);
#27=VECTOR('',#99,10.);
#28=VECTOR('',#102,10.);
#29=VECTOR('',#103,10.);
#30=VECTOR('',#104,10.);
#31=CIRCLE('',#88,38.);
#32=CIRCLE('',#91,38.);
#33=VERTEX_POINT('',#113);
#34=VERTEX_POINT('',#114);
#35=VERTEX_POINT('',#118);
#36=VERTEX_POINT('',#120);
#37=EDGE_CURVE('',#33,#34,#31,.T.);
#38=EDGE_CURVE('',#34,#33,#23,.T.);
#39=EDGE_CURVE('',#35,#34,#24,.T.);
#40=EDGE_CURVE('',#36,#35,#25,.T.);
#41=EDGE_CURVE('',#33,#36,#26,.T.);
#42=EDGE_CURVE('',#35,#36,#32,.T.);
#43=ORIENTED_EDGE('',*,*,#37,.T.);
#44=ORIENTED_EDGE('',*,*,#38,.T.);
#45=ORIENTED_EDGE('',*,*,#39,.F.);
#46=ORIENTED_EDGE('',*,*,#40,.F.);
#47=ORIENTED_EDGE('',*,*,#41,.F.);
#48=ORIENTED_EDGE('',*,*,#38,.F.);
#49=ORIENTED_EDGE('',*,*,#41,.T.);
#50=ORIENTED_EDGE('',*,*,#42,.F.);
#51=ORIENTED_EDGE('',*,*,#39,.T.);
#52=ORIENTED_EDGE('',*,*,#37,.F.);
#53=ORIENTED_EDGE('',*,*,#42,.T.);
#54=ORIENTED_EDGE('',*,*,#40,.T.);
#55=PLANE('',#87);
#56=PLANE('',#89);
#57=PLANE('',#92);
#58=STYLED_ITEM('',(#146),#63);
#59=STYLED_ITEM('',(#146),#64);
#60=STYLED_ITEM('',(#146),#65);
#61=STYLED_ITEM('',(#146),#66);
#62=STYLED_ITEM('',(#146),#13);
#63=ADVANCED_FACE('',(#15),#55,.F.);
#64=ADVANCED_FACE('',(#16),#56,.T.);
#65=ADVANCED_FACE('',(#17),#14,.T.);
#66=ADVANCED_FACE('',(#18),#57,.T.);
#67=CLOSED_SHELL('',(#63,#64,#65,#66));
#68=DERIVED_UNIT_ELEMENT(#70,1.);
#69=DERIVED_UNIT_ELEMENT(#131,3.);
#70=(
MASS_UNIT()
NAMED_UNIT(*)
SI_UNIT($,.GRAM.)
);
#71=DERIVED_UNIT((#68,#69));
#72=MEASURE_REPRESENTATION_ITEM('density measure',
POSITIVE_RATIO_MEASURE(1.),#71);
#73=PROPERTY_DEFINITION_REPRESENTATION(#78,#75);
#74=PROPERTY_DEFINITION_REPRESENTATION(#79,#76);
#75=REPRESENTATION('material name',(#77),#128);
#76=REPRESENTATION('density',(#72),#128);
#77=DESCRIPTIVE_REPRESENTATION_ITEM('Allgemein','Allgemein');
#78=PROPERTY_DEFINITION('material property','material name',#138);
#79=PROPERTY_DEFINITION('material property','density of part',#138);
#80=DATE_TIME_ROLE('creation_date');
#81=APPLIED_DATE_AND_TIME_ASSIGNMENT(#82,#80,(#138));
#82=DATE_AND_TIME(#83,#84);
#83=CALENDAR_DATE(2021,8,7);
#84=LOCAL_TIME(12,54,51.,#85);
#85=COORDINATED_UNIVERSAL_TIME_OFFSET(0,0,.BEHIND.);
#86=AXIS2_PLACEMENT_3D('placement',#111,#93,#94);
#87=AXIS2_PLACEMENT_3D('',#112,#95,#96);
#88=AXIS2_PLACEMENT_3D('',#115,#97,#98);
#89=AXIS2_PLACEMENT_3D('',#117,#100,#101);
#90=AXIS2_PLACEMENT_3D('',#123,#105,#106);
#91=AXIS2_PLACEMENT_3D('',#124,#107,#108);
#92=AXIS2_PLACEMENT_3D('',#125,#109,#110);
#93=DIRECTION('axis',(0.,0.,1.));
#94=DIRECTION('refdir',(1.,0.,0.));
#95=DIRECTION('center_axis',(0.,0.,1.));
#96=DIRECTION('ref_axis',(1.,0.,0.));
#97=DIRECTION('center_axis',(0.,0.,-1.));
#98=DIRECTION('ref_axis',(0.578348973048313,0.815789473684211,0.));
#99=DIRECTION('',(-1.,0.,0.));
#100=DIRECTION('center_axis',(0.,-1.,0.));
#101=DIRECTION('ref_axis',(1.,0.,0.));
#102=DIRECTION('',(0.,0.,-1.));
#103=DIRECTION('',(1.,0.,0.));
#104=DIRECTION('',(0.,0.,1.));
#105=DIRECTION('center_axis',(0.,0.,1.));
#106=DIRECTION('ref_axis',(0.578348973048313,0.815789473684211,0.));
#107=DIRECTION('center_axis',(0.,0.,1.));
#108=DIRECTION('ref_axis',(0.578348973048313,0.815789473684211,0.));
#109=DIRECTION('center_axis',(0.,0.,1.));
#110=DIRECTION('ref_axis',(1.,0.,0.));
#111=CARTESIAN_POINT('',(0.,0.,0.));
#112=CARTESIAN_POINT('Origin',(0.,3.5,-1.5));
#113=CARTESIAN_POINT('',(-21.9772609758359,0.,-1.5));
#114=CARTESIAN_POINT('',(21.9772609758359,0.,-1.5));
#115=CARTESIAN_POINT('Origin',(3.7964050773568E-15,-31.,-1.5));
#116=CARTESIAN_POINT('',(-21.9772609758359,0.,-1.5));
#117=CARTESIAN_POINT('Origin',(-21.9772609758359,0.,0.));
#118=CARTESIAN_POINT('',(21.9772609758359,0.,1.5));
#119=CARTESIAN_POINT('',(21.9772609758359,0.,0.));
#120=CARTESIAN_POINT('',(-21.9772609758359,0.,1.5));
#121=CARTESIAN_POINT('',(-21.9772609758359,0.,1.5));
#122=CARTESIAN_POINT('',(-21.9772609758359,0.,0.));
#123=CARTESIAN_POINT('Origin',(3.7964050773568E-15,-31.,0.));
#124=CARTESIAN_POINT('Origin',(3.7964050773568E-15,-31.,1.5));
#125=CARTESIAN_POINT('Origin',(0.,3.5,1.5));
#126=UNCERTAINTY_MEASURE_WITH_UNIT(LENGTH_MEASURE(0.01),#130,
'DISTANCE_ACCURACY_VALUE',
'Maximum model space distance between geometric entities at asserted c
onnectivities');
#127=UNCERTAINTY_MEASURE_WITH_UNIT(LENGTH_MEASURE(0.01),#130,
'DISTANCE_ACCURACY_VALUE',
'Maximum model space distance between geometric entities at asserted c
onnectivities');
#128=(
GEOMETRIC_REPRESENTATION_CONTEXT(3)
GLOBAL_UNCERTAINTY_ASSIGNED_CONTEXT((#126))
GLOBAL_UNIT_ASSIGNED_CONTEXT((#130,#132,#133))
REPRESENTATION_CONTEXT('','3D')
);
#129=(
GEOMETRIC_REPRESENTATION_CONTEXT(3)
GLOBAL_UNCERTAINTY_ASSIGNED_CONTEXT((#127))
GLOBAL_UNIT_ASSIGNED_CONTEXT((#130,#132,#133))
REPRESENTATION_CONTEXT('','3D')
);
#130=(
LENGTH_UNIT()
NAMED_UNIT(*)
SI_UNIT(.MILLI.,.METRE.)
);
#131=(
LENGTH_UNIT()
NAMED_UNIT(*)
SI_UNIT(.CENTI.,.METRE.)
);
#132=(
NAMED_UNIT(*)
PLANE_ANGLE_UNIT()
SI_UNIT($,.RADIAN.)
);
#133=(
NAMED_UNIT(*)
SI_UNIT($,.STERADIAN.)
SOLID_ANGLE_UNIT()
);
#134=SHAPE_DEFINITION_REPRESENTATION(#135,#136);
#135=PRODUCT_DEFINITION_SHAPE('',$,#138);
#136=SHAPE_REPRESENTATION('',(#86),#128);
#137=PRODUCT_DEFINITION_CONTEXT('part definition',#142,'design');
#138=PRODUCT_DEFINITION('Nut 3mm D76x7mm','Nut 3mm D76x7mm',#139,#137);
#139=PRODUCT_DEFINITION_FORMATION('',$,#144);
#140=PRODUCT_RELATED_PRODUCT_CATEGORY('Nut 3mm D76x7mm',
'Nut 3mm D76x7mm',(#144));
#141=APPLICATION_PROTOCOL_DEFINITION('international standard',
'automotive_design',2009,#142);
#142=APPLICATION_CONTEXT(
'Core Data for Automotive Mechanical Design Process');
#143=PRODUCT_CONTEXT('part definition',#142,'mechanical');
#144=PRODUCT('Nut 3mm D76x7mm','Nut 3mm D76x7mm',$,(#143));
#145=PRESENTATION_STYLE_ASSIGNMENT((#147));
#146=PRESENTATION_STYLE_ASSIGNMENT((#148));
#147=SURFACE_STYLE_USAGE(.BOTH.,#153);
#148=SURFACE_STYLE_USAGE(.BOTH.,#154);
#149=SURFACE_STYLE_RENDERING_WITH_PROPERTIES($,#161,(#151));
#150=SURFACE_STYLE_RENDERING_WITH_PROPERTIES($,#162,(#152));
#151=SURFACE_STYLE_TRANSPARENT(0.);
#152=SURFACE_STYLE_TRANSPARENT(0.339999973773956);
#153=SURFACE_SIDE_STYLE('',(#155,#149));
#154=SURFACE_SIDE_STYLE('',(#156,#150));
#155=SURFACE_STYLE_FILL_AREA(#157);
#156=SURFACE_STYLE_FILL_AREA(#158);
#157=FILL_AREA_STYLE('',(#159));
#158=FILL_AREA_STYLE('',(#160));
#159=FILL_AREA_STYLE_COLOUR('',#161);
#160=FILL_AREA_STYLE_COLOUR('',#162);
#161=COLOUR_RGB('',0.749019607843137,0.749019607843137,0.749019607843137);
#162=COLOUR_RGB('',0.0823529411764706,0.67843137254902,0.305882352941176);
ENDSEC;
END-ISO-10303-21;
