ISO-10303-21;
HEADER;
/* Generated by software containing ST-Developer
 * from STEP Tools, Inc. (www.steptools.com) 
 */

FILE_DESCRIPTION(
/* description */ (''),
/* implementation_level */ '2;1');

FILE_NAME(
/* name */ 
'C:\\Users\\matthiask.LAMELLONET\\Desktop\\Bohrung_D12x37mm_Bohrung_D1
2x14mm.stp',
/* time_stamp */ '2021-07-12T13:11:52+02:00',
/* author */ ('matthiask'),
/* organization */ (''),
/* preprocessor_version */ 'ST-DEVELOPER v18',
/* originating_system */ 'Autodesk Inventor 2020',
/* authorisation */ '');

FILE_SCHEMA (('AUTOMOTIVE_DESIGN { 1 0 10303 214 3 1 1 }'));
ENDSEC;

DATA;
#10=MECHANICAL_DESIGN_GEOMETRIC_PRESENTATION_REPRESENTATION('',(#23,#24),
#284);
#11=ITEM_DEFINED_TRANSFORMATION($,$,#184,#200);
#12=ITEM_DEFINED_TRANSFORMATION($,$,#192,#201);
#13=(
REPRESENTATION_RELATIONSHIP($,$,#298,#297)
REPRESENTATION_RELATIONSHIP_WITH_TRANSFORMATION(#11)
SHAPE_REPRESENTATION_RELATIONSHIP()
);
#14=(
REPRESENTATION_RELATIONSHIP($,$,#299,#297)
REPRESENTATION_RELATIONSHIP_WITH_TRANSFORMATION(#12)
SHAPE_REPRESENTATION_RELATIONSHIP()
);
#15=CONTEXT_DEPENDENT_SHAPE_REPRESENTATION(#13,#295);
#16=CONTEXT_DEPENDENT_SHAPE_REPRESENTATION(#14,#296);
#17=NEXT_ASSEMBLY_USAGE_OCCURRENCE('Invis Mx2 Bohrung D12x37:1',
'Invis Mx2 Bohrung D12x37:1','Invis Mx2 Bohrung D12x37:1',#301,#302,
'Invis Mx2 Bohrung D12x37:1');
#18=NEXT_ASSEMBLY_USAGE_OCCURRENCE('Invis Mx2 Bohrung D12x14:1',
'Invis Mx2 Bohrung D12x14:1','Invis Mx2 Bohrung D12x14:1',#301,#303,
'Invis Mx2 Bohrung D12x14:1');
#19=SHAPE_REPRESENTATION_RELATIONSHIP('SRR','None',#298,#21);
#20=SHAPE_REPRESENTATION_RELATIONSHIP('SRR','None',#299,#22);
#21=ADVANCED_BREP_SHAPE_REPRESENTATION('',(#25),#282);
#22=ADVANCED_BREP_SHAPE_REPRESENTATION('',(#26),#283);
#23=STYLED_ITEM('',(#139),#25);
#24=STYLED_ITEM('',(#140),#26);
#25=MANIFOLD_SOLID_BREP('Volumenk\X\F6rper1',#113);
#26=MANIFOLD_SOLID_BREP('Volumenk\X\F6rper1',#114);
#27=CONICAL_SURFACE('',#191,3.,1.02974425867666);
#28=CONICAL_SURFACE('',#199,3.,1.02974425867665);
#29=PLANE('',#190);
#30=PLANE('',#198);
#31=FACE_OUTER_BOUND('',#37,.T.);
#32=FACE_OUTER_BOUND('',#38,.T.);
#33=FACE_OUTER_BOUND('',#39,.T.);
#34=FACE_OUTER_BOUND('',#40,.T.);
#35=FACE_OUTER_BOUND('',#41,.T.);
#36=FACE_OUTER_BOUND('',#42,.T.);
#37=EDGE_LOOP('',(#81,#82,#83,#84,#85,#86));
#38=EDGE_LOOP('',(#87,#88));
#39=EDGE_LOOP('',(#89,#90,#91,#92));
#40=EDGE_LOOP('',(#93,#94,#95,#96,#97,#98));
#41=EDGE_LOOP('',(#99,#100));
#42=EDGE_LOOP('',(#101,#102,#103,#104));
#43=LINE('',#252,#47);
#44=LINE('',#259,#48);
#45=LINE('',#267,#49);
#46=LINE('',#274,#50);
#47=VECTOR('',#212,6.);
#48=VECTOR('',#221,3.);
#49=VECTOR('',#230,6.);
#50=VECTOR('',#239,3.);
#51=CIRCLE('',#186,6.);
#52=CIRCLE('',#187,6.);
#53=CIRCLE('',#188,6.);
#54=CIRCLE('',#189,6.);
#55=CIRCLE('',#194,6.);
#56=CIRCLE('',#195,6.);
#57=CIRCLE('',#196,6.);
#58=CIRCLE('',#197,6.);
#59=VERTEX_POINT('',#247);
#60=VERTEX_POINT('',#248);
#61=VERTEX_POINT('',#251);
#62=VERTEX_POINT('',#253);
#63=VERTEX_POINT('',#258);
#64=VERTEX_POINT('',#262);
#65=VERTEX_POINT('',#263);
#66=VERTEX_POINT('',#266);
#67=VERTEX_POINT('',#268);
#68=VERTEX_POINT('',#273);
#69=EDGE_CURVE('',#59,#60,#51,.T.);
#70=EDGE_CURVE('',#60,#59,#52,.T.);
#71=EDGE_CURVE('',#60,#61,#43,.T.);
#72=EDGE_CURVE('',#61,#62,#53,.T.);
#73=EDGE_CURVE('',#62,#61,#54,.T.);
#74=EDGE_CURVE('',#61,#63,#44,.T.);
#75=EDGE_CURVE('',#64,#65,#55,.T.);
#76=EDGE_CURVE('',#65,#64,#56,.T.);
#77=EDGE_CURVE('',#65,#66,#45,.T.);
#78=EDGE_CURVE('',#66,#67,#57,.T.);
#79=EDGE_CURVE('',#67,#66,#58,.T.);
#80=EDGE_CURVE('',#66,#68,#46,.T.);
#81=ORIENTED_EDGE('',*,*,#69,.F.);
#82=ORIENTED_EDGE('',*,*,#70,.F.);
#83=ORIENTED_EDGE('',*,*,#71,.T.);
#84=ORIENTED_EDGE('',*,*,#72,.T.);
#85=ORIENTED_EDGE('',*,*,#73,.T.);
#86=ORIENTED_EDGE('',*,*,#71,.F.);
#87=ORIENTED_EDGE('',*,*,#69,.T.);
#88=ORIENTED_EDGE('',*,*,#70,.T.);
#89=ORIENTED_EDGE('',*,*,#73,.F.);
#90=ORIENTED_EDGE('',*,*,#72,.F.);
#91=ORIENTED_EDGE('',*,*,#74,.T.);
#92=ORIENTED_EDGE('',*,*,#74,.F.);
#93=ORIENTED_EDGE('',*,*,#75,.F.);
#94=ORIENTED_EDGE('',*,*,#76,.F.);
#95=ORIENTED_EDGE('',*,*,#77,.T.);
#96=ORIENTED_EDGE('',*,*,#78,.T.);
#97=ORIENTED_EDGE('',*,*,#79,.T.);
#98=ORIENTED_EDGE('',*,*,#77,.F.);
#99=ORIENTED_EDGE('',*,*,#75,.T.);
#100=ORIENTED_EDGE('',*,*,#76,.T.);
#101=ORIENTED_EDGE('',*,*,#79,.F.);
#102=ORIENTED_EDGE('',*,*,#78,.F.);
#103=ORIENTED_EDGE('',*,*,#80,.T.);
#104=ORIENTED_EDGE('',*,*,#80,.F.);
#105=CYLINDRICAL_SURFACE('',#185,6.);
#106=CYLINDRICAL_SURFACE('',#193,6.);
#107=ADVANCED_FACE('',(#31),#105,.T.);
#108=ADVANCED_FACE('',(#32),#29,.T.);
#109=ADVANCED_FACE('',(#33),#27,.T.);
#110=ADVANCED_FACE('',(#34),#106,.T.);
#111=ADVANCED_FACE('',(#35),#30,.T.);
#112=ADVANCED_FACE('',(#36),#28,.T.);
#113=CLOSED_SHELL('',(#107,#108,#109));
#114=CLOSED_SHELL('',(#110,#111,#112));
#115=DERIVED_UNIT_ELEMENT(#119,1.);
#116=DERIVED_UNIT_ELEMENT(#286,3.);
#117=DERIVED_UNIT_ELEMENT(#119,1.);
#118=DERIVED_UNIT_ELEMENT(#286,3.);
#119=(
MASS_UNIT()
NAMED_UNIT(*)
SI_UNIT($,.GRAM.)
);
#120=DERIVED_UNIT((#115,#116));
#121=DERIVED_UNIT((#117,#118));
#122=MEASURE_REPRESENTATION_ITEM('density measure',
POSITIVE_RATIO_MEASURE(1.),#120);
#123=MEASURE_REPRESENTATION_ITEM('density measure',
POSITIVE_RATIO_MEASURE(1.),#121);
#124=PROPERTY_DEFINITION_REPRESENTATION(#134,#128);
#125=PROPERTY_DEFINITION_REPRESENTATION(#135,#129);
#126=PROPERTY_DEFINITION_REPRESENTATION(#136,#130);
#127=PROPERTY_DEFINITION_REPRESENTATION(#137,#131);
#128=REPRESENTATION('material name',(#132),#282);
#129=REPRESENTATION('density',(#122),#282);
#130=REPRESENTATION('material name',(#133),#283);
#131=REPRESENTATION('density',(#123),#283);
#132=DESCRIPTIVE_REPRESENTATION_ITEM('Allgemein','Allgemein');
#133=DESCRIPTIVE_REPRESENTATION_ITEM('Allgemein','Allgemein');
#134=PROPERTY_DEFINITION('material property','material name',#302);
#135=PROPERTY_DEFINITION('material property','density of part',#302);
#136=PROPERTY_DEFINITION('material property','material name',#303);
#137=PROPERTY_DEFINITION('material property','density of part',#303);
#138=PRESENTATION_STYLE_ASSIGNMENT((#141));
#139=PRESENTATION_STYLE_ASSIGNMENT((#142));
#140=PRESENTATION_STYLE_ASSIGNMENT((#143));
#141=SURFACE_STYLE_USAGE(.BOTH.,#150);
#142=SURFACE_STYLE_USAGE(.BOTH.,#151);
#143=SURFACE_STYLE_USAGE(.BOTH.,#152);
#144=SURFACE_STYLE_RENDERING_WITH_PROPERTIES($,#162,(#147));
#145=SURFACE_STYLE_RENDERING_WITH_PROPERTIES($,#163,(#148));
#146=SURFACE_STYLE_RENDERING_WITH_PROPERTIES($,#164,(#149));
#147=SURFACE_STYLE_TRANSPARENT(0.);
#148=SURFACE_STYLE_TRANSPARENT(0.339999973773956);
#149=SURFACE_STYLE_TRANSPARENT(0.339999973773956);
#150=SURFACE_SIDE_STYLE('',(#153,#144));
#151=SURFACE_SIDE_STYLE('',(#154,#145));
#152=SURFACE_SIDE_STYLE('',(#155,#146));
#153=SURFACE_STYLE_FILL_AREA(#156);
#154=SURFACE_STYLE_FILL_AREA(#157);
#155=SURFACE_STYLE_FILL_AREA(#158);
#156=FILL_AREA_STYLE('',(#159));
#157=FILL_AREA_STYLE('',(#160));
#158=FILL_AREA_STYLE('',(#161));
#159=FILL_AREA_STYLE_COLOUR('',#162);
#160=FILL_AREA_STYLE_COLOUR('',#163);
#161=FILL_AREA_STYLE_COLOUR('',#164);
#162=COLOUR_RGB('',0.749019607843137,0.749019607843137,0.749019607843137);
#163=COLOUR_RGB('',0.749019607843137,0.749019607843137,0.749019607843137);
#164=COLOUR_RGB('',0.749019607843137,0.749019607843137,0.749019607843137);
#165=DATE_TIME_ROLE('creation_date');
#166=DATE_TIME_ROLE('creation_date');
#167=DATE_TIME_ROLE('creation_date');
#168=APPLIED_DATE_AND_TIME_ASSIGNMENT(#171,#165,(#301));
#169=APPLIED_DATE_AND_TIME_ASSIGNMENT(#172,#166,(#302));
#170=APPLIED_DATE_AND_TIME_ASSIGNMENT(#173,#167,(#303));
#171=DATE_AND_TIME(#174,#177);
#172=DATE_AND_TIME(#175,#178);
#173=DATE_AND_TIME(#176,#179);
#174=CALENDAR_DATE(2021,12,7);
#175=CALENDAR_DATE(2021,9,7);
#176=CALENDAR_DATE(2021,9,7);
#177=LOCAL_TIME(11,8,30.,#180);
#178=LOCAL_TIME(6,52,55.,#181);
#179=LOCAL_TIME(6,52,55.,#182);
#180=COORDINATED_UNIVERSAL_TIME_OFFSET(0,0,.BEHIND.);
#181=COORDINATED_UNIVERSAL_TIME_OFFSET(0,0,.BEHIND.);
#182=COORDINATED_UNIVERSAL_TIME_OFFSET(0,0,.BEHIND.);
#183=AXIS2_PLACEMENT_3D('placement',#244,#202,#203);
#184=AXIS2_PLACEMENT_3D('placement',#245,#204,#205);
#185=AXIS2_PLACEMENT_3D('',#246,#206,#207);
#186=AXIS2_PLACEMENT_3D('',#249,#208,#209);
#187=AXIS2_PLACEMENT_3D('',#250,#210,#211);
#188=AXIS2_PLACEMENT_3D('',#254,#213,#214);
#189=AXIS2_PLACEMENT_3D('',#255,#215,#216);
#190=AXIS2_PLACEMENT_3D('',#256,#217,#218);
#191=AXIS2_PLACEMENT_3D('',#257,#219,#220);
#192=AXIS2_PLACEMENT_3D('placement',#260,#222,#223);
#193=AXIS2_PLACEMENT_3D('',#261,#224,#225);
#194=AXIS2_PLACEMENT_3D('',#264,#226,#227);
#195=AXIS2_PLACEMENT_3D('',#265,#228,#229);
#196=AXIS2_PLACEMENT_3D('',#269,#231,#232);
#197=AXIS2_PLACEMENT_3D('',#270,#233,#234);
#198=AXIS2_PLACEMENT_3D('',#271,#235,#236);
#199=AXIS2_PLACEMENT_3D('',#272,#237,#238);
#200=AXIS2_PLACEMENT_3D('',#275,#240,#241);
#201=AXIS2_PLACEMENT_3D('',#276,#242,#243);
#202=DIRECTION('axis',(0.,0.,1.));
#203=DIRECTION('refdir',(1.,0.,0.));
#204=DIRECTION('axis',(0.,0.,1.));
#205=DIRECTION('refdir',(1.,0.,0.));
#206=DIRECTION('center_axis',(1.,3.45907738907197E-18,0.));
#207=DIRECTION('ref_axis',(0.,1.,0.));
#208=DIRECTION('center_axis',(1.,3.45907738907197E-18,0.));
#209=DIRECTION('ref_axis',(0.,0.,-1.));
#210=DIRECTION('center_axis',(1.,3.45907738907197E-18,0.));
#211=DIRECTION('ref_axis',(0.,0.,-1.));
#212=DIRECTION('',(-1.,-3.45907738907197E-18,0.));
#213=DIRECTION('center_axis',(1.,3.45907738907197E-18,0.));
#214=DIRECTION('ref_axis',(0.,0.,-1.));
#215=DIRECTION('center_axis',(1.,3.45907738907197E-18,0.));
#216=DIRECTION('ref_axis',(0.,0.,-1.));
#217=DIRECTION('center_axis',(1.,3.45907738907197E-18,0.));
#218=DIRECTION('ref_axis',(0.,0.,-1.));
#219=DIRECTION('center_axis',(1.,3.45907738907197E-18,0.));
#220=DIRECTION('ref_axis',(0.,1.,0.));
#221=DIRECTION('',(-0.515038074910053,0.857167300702113,1.04972719113862E-16));
#222=DIRECTION('axis',(0.,0.,1.));
#223=DIRECTION('refdir',(1.,0.,0.));
#224=DIRECTION('center_axis',(1.,-4.81500509162642E-18,0.));
#225=DIRECTION('ref_axis',(0.,1.,0.));
#226=DIRECTION('center_axis',(1.,-4.81500509162642E-18,0.));
#227=DIRECTION('ref_axis',(0.,0.,-1.));
#228=DIRECTION('center_axis',(1.,-4.81500509162642E-18,0.));
#229=DIRECTION('ref_axis',(0.,0.,-1.));
#230=DIRECTION('',(-1.,4.81500509162642E-18,0.));
#231=DIRECTION('center_axis',(1.,-4.81500509162642E-18,0.));
#232=DIRECTION('ref_axis',(0.,0.,-1.));
#233=DIRECTION('center_axis',(1.,-4.81500509162642E-18,0.));
#234=DIRECTION('ref_axis',(0.,0.,-1.));
#235=DIRECTION('center_axis',(1.,-4.81500509162642E-18,0.));
#236=DIRECTION('ref_axis',(0.,0.,-1.));
#237=DIRECTION('center_axis',(1.,-4.81500509162642E-18,0.));
#238=DIRECTION('ref_axis',(0.,1.,0.));
#239=DIRECTION('',(-0.515038074910054,0.857167300702112,1.04972719113862E-16));
#240=DIRECTION('',(0.,0.,1.));
#241=DIRECTION('',(1.,0.,0.));
#242=DIRECTION('',(-2.9072356715793E-19,0.603307263459775,-0.797508837478731));
#243=DIRECTION('',(-1.,-4.80689917008416E-18,-3.27183034751286E-18));
#244=CARTESIAN_POINT('',(0.,0.,0.));
#245=CARTESIAN_POINT('',(0.,0.,0.));
#246=CARTESIAN_POINT('Origin',(-18.5,-6.39929316978315E-17,0.));
#247=CARTESIAN_POINT('',(-1.11022302462516E-15,6.,0.));
#248=CARTESIAN_POINT('',(0.,-6.,-7.34788079488412E-16));
#249=CARTESIAN_POINT('Origin',(0.,1.54074395550979E-32,0.));
#250=CARTESIAN_POINT('Origin',(0.,1.54074395550979E-32,0.));
#251=CARTESIAN_POINT('',(-37.,-6.,-7.34788079488412E-16));
#252=CARTESIAN_POINT('',(-18.5,-6.,-7.34788079488412E-16));
#253=CARTESIAN_POINT('',(-37.,6.,0.));
#254=CARTESIAN_POINT('Origin',(-37.,-1.27985863395663E-16,0.));
#255=CARTESIAN_POINT('Origin',(-37.,-1.27985863395663E-16,0.));
#256=CARTESIAN_POINT('Origin',(0.,0.,0.));
#257=CARTESIAN_POINT('Origin',(-38.8025818570827,-1.34221133539449E-16,
0.));
#258=CARTESIAN_POINT('',(-40.6051637141654,-1.40456403683235E-16,0.));
#259=CARTESIAN_POINT('',(-38.8025818570827,-3.,-3.67394039744206E-16));
#260=CARTESIAN_POINT('',(0.,0.,0.));
#261=CARTESIAN_POINT('Origin',(-7.,3.37050356413849E-17,0.));
#262=CARTESIAN_POINT('',(-1.11022302462516E-15,6.,0.));
#263=CARTESIAN_POINT('',(1.11022302462516E-15,-6.,-7.34788079488412E-16));
#264=CARTESIAN_POINT('Origin',(0.,0.,0.));
#265=CARTESIAN_POINT('Origin',(0.,0.,0.));
#266=CARTESIAN_POINT('',(-14.,-6.,-7.34788079488412E-16));
#267=CARTESIAN_POINT('',(-7.,-6.,-7.34788079488412E-16));
#268=CARTESIAN_POINT('',(-14.,6.,0.));
#269=CARTESIAN_POINT('Origin',(-14.,6.74100712827698E-17,0.));
#270=CARTESIAN_POINT('Origin',(-14.,6.74100712827698E-17,0.));
#271=CARTESIAN_POINT('Origin',(0.,0.,0.));
#272=CARTESIAN_POINT('Origin',(-15.8025818570827,7.60895121026963E-17,0.));
#273=CARTESIAN_POINT('',(-17.6051637141654,8.47689529226228E-17,0.));
#274=CARTESIAN_POINT('',(-15.8025818570827,-3.,-3.67394039744206E-16));
#275=CARTESIAN_POINT('',(0.,0.,0.));
#276=CARTESIAN_POINT('',(1.11388103969995E-50,-5.91416053712968E-33,4.59691957926068E-34));
#277=UNCERTAINTY_MEASURE_WITH_UNIT(LENGTH_MEASURE(0.01),#285,
'DISTANCE_ACCURACY_VALUE',
'Maximum model space distance between geometric entities at asserted c
onnectivities');
#278=UNCERTAINTY_MEASURE_WITH_UNIT(LENGTH_MEASURE(0.01),#285,
'DISTANCE_ACCURACY_VALUE',
'Maximum model space distance between geometric entities at asserted c
onnectivities');
#279=UNCERTAINTY_MEASURE_WITH_UNIT(LENGTH_MEASURE(0.01),#285,
'DISTANCE_ACCURACY_VALUE',
'Maximum model space distance between geometric entities at asserted c
onnectivities');
#280=UNCERTAINTY_MEASURE_WITH_UNIT(LENGTH_MEASURE(0.01),#285,
'DISTANCE_ACCURACY_VALUE',
'Maximum model space distance between geometric entities at asserted c
onnectivities');
#281=(
GEOMETRIC_REPRESENTATION_CONTEXT(3)
GLOBAL_UNCERTAINTY_ASSIGNED_CONTEXT((#277))
GLOBAL_UNIT_ASSIGNED_CONTEXT((#285,#287,#288))
REPRESENTATION_CONTEXT('','3D')
);
#282=(
GEOMETRIC_REPRESENTATION_CONTEXT(3)
GLOBAL_UNCERTAINTY_ASSIGNED_CONTEXT((#278))
GLOBAL_UNIT_ASSIGNED_CONTEXT((#285,#287,#288))
REPRESENTATION_CONTEXT('','3D')
);
#283=(
GEOMETRIC_REPRESENTATION_CONTEXT(3)
GLOBAL_UNCERTAINTY_ASSIGNED_CONTEXT((#279))
GLOBAL_UNIT_ASSIGNED_CONTEXT((#285,#287,#288))
REPRESENTATION_CONTEXT('','3D')
);
#284=(
GEOMETRIC_REPRESENTATION_CONTEXT(3)
GLOBAL_UNCERTAINTY_ASSIGNED_CONTEXT((#280))
GLOBAL_UNIT_ASSIGNED_CONTEXT((#285,#287,#288))
REPRESENTATION_CONTEXT('','3D')
);
#285=(
LENGTH_UNIT()
NAMED_UNIT(*)
SI_UNIT(.MILLI.,.METRE.)
);
#286=(
LENGTH_UNIT()
NAMED_UNIT(*)
SI_UNIT(.CENTI.,.METRE.)
);
#287=(
NAMED_UNIT(*)
PLANE_ANGLE_UNIT()
SI_UNIT($,.RADIAN.)
);
#288=(
NAMED_UNIT(*)
SI_UNIT($,.STERADIAN.)
SOLID_ANGLE_UNIT()
);
#289=SHAPE_DEFINITION_REPRESENTATION(#292,#297);
#290=SHAPE_DEFINITION_REPRESENTATION(#293,#298);
#291=SHAPE_DEFINITION_REPRESENTATION(#294,#299);
#292=PRODUCT_DEFINITION_SHAPE('',$,#301);
#293=PRODUCT_DEFINITION_SHAPE('',$,#302);
#294=PRODUCT_DEFINITION_SHAPE('',$,#303);
#295=PRODUCT_DEFINITION_SHAPE($,$,#17);
#296=PRODUCT_DEFINITION_SHAPE($,$,#18);
#297=SHAPE_REPRESENTATION('',(#183,#200,#201),#281);
#298=SHAPE_REPRESENTATION('',(#184),#282);
#299=SHAPE_REPRESENTATION('',(#192),#283);
#300=PRODUCT_DEFINITION_CONTEXT('part definition',#311,'design');
#301=PRODUCT_DEFINITION('Invis Bohrung D12x37mm_Bohrung D12x14mm',
'Invis Bohrung D12x37mm_Bohrung D12x14mm',#304,#300);
#302=PRODUCT_DEFINITION('Bohrung D8x16.5','Invis Mx2 Bohrung D12x37',#305,
#300);
#303=PRODUCT_DEFINITION('Bohrung D8x16.5_1','Invis Mx2 Bohrung D12x14',
#306,#300);
#304=PRODUCT_DEFINITION_FORMATION('',$,#313);
#305=PRODUCT_DEFINITION_FORMATION('0',$,#314);
#306=PRODUCT_DEFINITION_FORMATION('0',$,#315);
#307=PRODUCT_RELATED_PRODUCT_CATEGORY(
'Invis Bohrung D12x37mm_Bohrung D12x14mm',
'Invis Bohrung D12x37mm_Bohrung D12x14mm',(#313));
#308=PRODUCT_RELATED_PRODUCT_CATEGORY('Invis Mx2 Bohrung D12x37',
'Invis Mx2 Bohrung D12x37',(#314));
#309=PRODUCT_RELATED_PRODUCT_CATEGORY('Invis Mx2 Bohrung D12x14',
'Invis Mx2 Bohrung D12x14',(#315));
#310=APPLICATION_PROTOCOL_DEFINITION('international standard',
'automotive_design',2009,#311);
#311=APPLICATION_CONTEXT(
'Core Data for Automotive Mechanical Design Process');
#312=PRODUCT_CONTEXT('part definition',#311,'mechanical');
#313=PRODUCT('Invis Bohrung D12x37mm_Bohrung D12x14mm',
'Invis Bohrung D12x37mm_Bohrung D12x14mm',$,(#312));
#314=PRODUCT('Bohrung D8x16.5','Invis Mx2 Bohrung D12x37',$,(#312));
#315=PRODUCT('Bohrung D8x16.5_1','Invis Mx2 Bohrung D12x14',$,(#312));
ENDSEC;
END-ISO-10303-21;
